  0
SECTION
  2
HEADER
  9
$ACADVER
  1
AC1021
  9
$ACADMAINTVER
 70
    25
  9
$DWGCODEPAGE
  3
ANSI_932
  9
$LASTSAVEDBY
  1
His
  9
$INSBASE
 10
0.0
 20
0.0
 30
0.0
  9
$EXTMIN
 10
0.0
 20
340.4729670329672
 30
0.0
  9
$EXTMAX
 10
420.0
 20
637.4729670329672
 30
0.0
  9
$LIMMIN
 10
0.0
 20
0.0
  9
$LIMMAX
 10
0.0
 20
0.0
  9
$ORTHOMODE
 70
     0
  9
$REGENMODE
 70
     1
  9
$FILLMODE
 70
     1
  9
$QTEXTMODE
 70
     0
  9
$MIRRTEXT
 70
     0
  9
$LTSCALE
 40
1.0
  9
$ATTMODE
 70
     1
  9
$TEXTSIZE
 40
2.0
  9
$TRACEWID
 40
0.05
  9
$TEXTSTYLE
  7
Text
  9
$CLAYER
  8
文字
  9
$CELTYPE
  6
ByLayer
  9
$CECOLOR
 62
   256
  9
$CELTSCALE
 40
100.0
  9
$DISPSILH
 70
     0
  9
$DIMSCALE
 40
1.0
  9
$DIMASZ
 40
60.0
  9
$DIMEXO
 40
0.0
  9
$DIMDLI
 40
0.38
  9
$DIMRND
 40
0.0
  9
$DIMDLE
 40
0.0
  9
$DIMEXE
 40
30.0
  9
$DIMTP
 40
0.0
  9
$DIMTM
 40
0.0
  9
$DIMTXT
 40
100.0
  9
$DIMCEN
 40
0.09
  9
$DIMTSZ
 40
0.0
  9
$DIMTOL
 70
     0
  9
$DIMLIM
 70
     0
  9
$DIMTIH
 70
     0
  9
$DIMTOH
 70
     0
  9
$DIMSE1
 70
     0
  9
$DIMSE2
 70
     0
  9
$DIMTAD
 70
     3
  9
$DIMZIN
 70
     8
  9
$DIMBLK
  1
DOT
  9
$DIMASO
 70
     1
  9
$DIMSHO
 70
     1
  9
$DIMPOST
  1

  9
$DIMAPOST
  1

  9
$DIMALT
 70
     0
  9
$DIMALTD
 70
     2
  9
$DIMALTF
 40
25.4
  9
$DIMLFAC
 40
1.0
  9
$DIMTOFL
 70
     1
  9
$DIMTVP
 40
10.0
  9
$DIMTIX
 70
     0
  9
$DIMSOXD
 70
     0
  9
$DIMSAH
 70
     0
  9
$DIMBLK1
  1
DOT
  9
$DIMBLK2
  1
DOT
  9
$DIMSTYLE
  2
SNP100-1
  9
$DIMCLRD
 70
     0
  9
$DIMCLRE
 70
     0
  9
$DIMCLRT
 70
     0
  9
$DIMTFAC
 40
1.0
  9
$DIMGAP
 40
25.0
  9
$DIMJUST
 70
     0
  9
$DIMSD1
 70
     0
  9
$DIMSD2
 70
     0
  9
$DIMTOLJ
 70
     1
  9
$DIMTZIN
 70
     0
  9
$DIMALTZ
 70
     0
  9
$DIMALTTZ
 70
     0
  9
$DIMUPT
 70
     0
  9
$DIMDEC
 70
     1
  9
$DIMTDEC
 70
     1
  9
$DIMALTU
 70
     2
  9
$DIMALTTD
 70
     2
  9
$DIMTXSTY
  7
Text
  9
$DIMAUNIT
 70
     0
  9
$DIMADEC
 70
     0
  9
$DIMALTRND
 40
0.0
  9
$DIMAZIN
 70
     0
  9
$DIMDSEP
 70
    46
  9
$DIMATFIT
 70
     1
  9
$DIMFRAC
 70
     0
  9
$DIMLDRBLK
  1
DOT
  9
$DIMLUNIT
 70
     2
  9
$DIMLWD
 70
    -2
  9
$DIMLWE
 70
    -2
  9
$DIMTMOVE
 70
     0
  9
$DIMFXL
 40
1.0
  9
$DIMFXLON
 70
     0
  9
$DIMJOGANG
 40
0.7853981633974483
  9
$DIMTFILL
 70
     0
  9
$DIMTFILLCLR
 70
     0
  9
$DIMARCSYM
 70
     0
  9
$DIMLTYPE
  6

  9
$DIMLTEX1
  6

  9
$DIMLTEX2
  6

  9
$LUNITS
 70
     2
  9
$LUPREC
 70
     0
  9
$SKETCHINC
 40
0.1
  9
$FILLETRAD
 40
0.0
  9
$AUNITS
 70
     0
  9
$AUPREC
 70
     0
  9
$MENU
  1
.
  9
$ELEVATION
 40
0.0
  9
$PELEVATION
 40
0.0
  9
$THICKNESS
 40
0.0
  9
$LIMCHECK
 70
     0
  9
$CHAMFERA
 40
0.0
  9
$CHAMFERB
 40
0.0
  9
$CHAMFERC
 40
0.0
  9
$CHAMFERD
 40
0.0
  9
$SKPOLY
 70
     0
  9
$TDCREATE
 40
2457738.432300405
  9
$TDUCREATE
 40
2457738.057300405
  9
$TDUPDATE
 40
2457743.479298113
  9
$TDUUPDATE
 40
2457743.104298113
  9
$TDINDWG
 40
0.802041875
  9
$TDUSRTIMER
 40
0.8020334375
  9
$USRTIMER
 70
     1
  9
$ANGBASE
 50
0.0
  9
$ANGDIR
 70
     0
  9
$PDMODE
 70
     0
  9
$PDSIZE
 40
0.0
  9
$PLINEWID
 40
0.0
  9
$SPLFRAME
 70
     0
  9
$SPLINETYPE
 70
     6
  9
$SPLINESEGS
 70
     8
  9
$HANDSEED
  5
9D4
  9
$SURFTAB1
 70
     6
  9
$SURFTAB2
 70
     6
  9
$SURFTYPE
 70
     6
  9
$SURFU
 70
     6
  9
$SURFV
 70
     6
  9
$UCSBASE
  2

  9
$UCSNAME
  2

  9
$UCSORG
 10
0.0
 20
0.0
 30
0.0
  9
$UCSXDIR
 10
1.0
 20
0.0
 30
0.0
  9
$UCSYDIR
 10
0.0
 20
1.0
 30
0.0
  9
$UCSORTHOREF
  2

  9
$UCSORTHOVIEW
 70
     0
  9
$UCSORGTOP
 10
0.0
 20
0.0
 30
0.0
  9
$UCSORGBOTTOM
 10
0.0
 20
0.0
 30
0.0
  9
$UCSORGLEFT
 10
0.0
 20
0.0
 30
0.0
  9
$UCSORGRIGHT
 10
0.0
 20
0.0
 30
0.0
  9
$UCSORGFRONT
 10
0.0
 20
0.0
 30
0.0
  9
$UCSORGBACK
 10
0.0
 20
0.0
 30
0.0
  9
$PUCSBASE
  2

  9
$PUCSNAME
  2

  9
$PUCSORG
 10
0.0
 20
0.0
 30
0.0
  9
$PUCSXDIR
 10
1.0
 20
0.0
 30
0.0
  9
$PUCSYDIR
 10
0.0
 20
1.0
 30
0.0
  9
$PUCSORTHOREF
  2

  9
$PUCSORTHOVIEW
 70
     0
  9
$PUCSORGTOP
 10
0.0
 20
0.0
 30
0.0
  9
$PUCSORGBOTTOM
 10
0.0
 20
0.0
 30
0.0
  9
$PUCSORGLEFT
 10
0.0
 20
0.0
 30
0.0
  9
$PUCSORGRIGHT
 10
0.0
 20
0.0
 30
0.0
  9
$PUCSORGFRONT
 10
0.0
 20
0.0
 30
0.0
  9
$PUCSORGBACK
 10
0.0
 20
0.0
 30
0.0
  9
$USERI1
 70
     0
  9
$USERI2
 70
     0
  9
$USERI3
 70
     0
  9
$USERI4
 70
     0
  9
$USERI5
 70
     0
  9
$USERR1
 40
0.0
  9
$USERR2
 40
350.0
  9
$USERR3
 40
500.0
  9
$USERR4
 40
500.0
  9
$USERR5
 40
0.0
  9
$WORLDVIEW
 70
     1
  9
$SHADEDGE
 70
     3
  9
$SHADEDIF
 70
    70
  9
$TILEMODE
 70
     1
  9
$MAXACTVP
 70
    16
  9
$PINSBASE
 10
0.0
 20
0.0
 30
0.0
  9
$PLIMCHECK
 70
     0
  9
$PEXTMIN
 10
101881.5065604734
 20
197571.0234393738
 30
0.0
  9
$PEXTMAX
 10
102202.2396647117
 20
197797.8275630852
 30
0.0
  9
$PLIMMIN
 10
101831.8731125925
 20
197535.9255012295
  9
$PLIMMAX
 10
102251.8731125925
 20
197832.9255012295
  9
$UNITMODE
 70
     0
  9
$VISRETAIN
 70
     0
  9
$PLINEGEN
 70
     0
  9
$PSLTSCALE
 70
     0
  9
$TREEDEPTH
 70
  3020
  9
$CMLSTYLE
  2
Standard
  9
$CMLJUST
 70
     0
  9
$CMLSCALE
 40
1.0
  9
$PROXYGRAPHICS
 70
     1
  9
$MEASUREMENT
 70
     1
  9
$CELWEIGHT
370
    -1
  9
$ENDCAPS
280
     0
  9
$JOINSTYLE
280
     0
  9
$LWDISPLAY
290
     0
  9
$INSUNITS
 70
     0
  9
$HYPERLINKBASE
  1

  9
$STYLESHEET
  1

  9
$XEDIT
290
     1
  9
$CEPSNTYPE
380
     0
  9
$PSTYLEMODE
290
     1
  9
$FINGERPRINTGUID
  2
{38561F05-2140-11D6-A819-004033A65A1D}
  9
$VERSIONGUID
  2
{8483EFBE-E338-4F40-A087-94FDEFA626AB}
  9
$EXTNAMES
290
     1
  9
$PSVPSCALE
 40
0.0
  9
$OLESTARTUP
290
     0
  9
$SORTENTS
280
   127
  9
$INDEXCTL
280
     0
  9
$HIDETEXT
280
     1
  9
$XCLIPFRAME
290
     0
  9
$HALOGAP
280
     0
  9
$OBSCOLOR
 70
   257
  9
$OBSLTYPE
280
     0
  9
$INTERSECTIONDISPLAY
280
     0
  9
$INTERSECTIONCOLOR
 70
   257
  9
$DIMASSOC
280
     1
  9
$PROJECTNAME
  1

  9
$CAMERADISPLAY
290
     0
  9
$LENSLENGTH
 40
50.0
  9
$CAMERAHEIGHT
 40
0.0
  9
$STEPSPERSEC
 40
2.0
  9
$STEPSIZE
 40
6.0
  9
$3DDWFPREC
 40
2.0
  9
$PSOLWIDTH
 40
0.25
  9
$PSOLHEIGHT
 40
4.0
  9
$LOFTANG1
 40
1.570796326794897
  9
$LOFTANG2
 40
1.570796326794897
  9
$LOFTMAG1
 40
0.0
  9
$LOFTMAG2
 40
0.0
  9
$LOFTPARAM
 70
     7
  9
$LOFTNORMALS
280
     1
  9
$LATITUDE
 40
37.795
  9
$LONGITUDE
 40
-122.394
  9
$NORTHDIRECTION
 40
0.0
  9
$TIMEZONE
 70
 -8000
  9
$LIGHTGLYPHDISPLAY
280
     1
  9
$TILEMODELIGHTSYNCH
280
     1
  9
$CMATERIAL
347
13
  9
$SOLIDHIST
280
     1
  9
$SHOWHIST
280
     1
  9
$DWFFRAME
280
     2
  9
$DGNFRAME
280
     2
  9
$REALWORLDSCALE
290
     1
  9
$INTERFERECOLOR
 62
   256
  9
$CSHADOW
280
     0
  9
$SHADOWPLANELOCATION
 40
0.0
  0
ENDSEC
  0
SECTION
  2
CLASSES
  0
CLASS
  1
ACDBDICTIONARYWDFLT
  2
AcDbDictionaryWithDefault
  3
ObjectDBX Classes
 90
        0
 91
        5
280
     0
281
     0
  0
CLASS
  1
MATERIAL
  2
AcDbMaterial
  3
ObjectDBX Classes
 90
     1153
 91
        5
280
     0
281
     0
  0
CLASS
  1
SORTENTSTABLE
  2
AcDbSortentsTable
  3
ObjectDBX Classes
 90
        0
 91
        5
280
     0
281
     0
  0
CLASS
  1
SCALE
  2
AcDbScale
  3
ObjectDBX Classes
 90
     1153
 91
        5
280
     0
281
     0
  0
CLASS
  1
DICTIONARYVAR
  2
AcDbDictionaryVar
  3
ObjectDBX Classes
 90
        0
 91
        5
280
     0
281
     0
  0
CLASS
  1
VISUALSTYLE
  2
AcDbVisualStyle
  3
ObjectDBX Classes
 90
     4095
 91
        5
280
     0
281
     0
  0
CLASS
  1
MLEADERSTYLE
  2
AcDbMLeaderStyle
  3
ACDB_MLEADERSTYLE_CLASS
 90
     4095
 91
        5
280
     0
281
     0
  0
ENDSEC
  0
SECTION
  2
TABLES
  0
TABLE
  2
VPORT
  5
33
330
0
100
AcDbSymbolTable
 70
     1
  0
VPORT
  5
38
330
33
100
AcDbSymbolTableRecord
100
AcDbViewportTableRecord
  2
*Active
 70
     0
 10
0.0
 20
0.0
 11
1.0
 21
1.0
 12
210.0
 22
488.9729670329672
 13
0.0
 23
0.0
 14
1.0
 24
1.0
 15
0.5
 25
0.5
 16
0.0
 26
0.0
 36
1.0
 17
0.0
 27
0.0
 37
0.0
 40
300.2637362637362
 41
2.255434782608696
 42
50.0
 43
0.0
 44
0.0
 50
0.0
 51
0.0
 71
     0
 72
   100
 73
     1
 74
     1
 75
     0
 76
     0
 77
     0
 78
     0
281
     0
 65
     1
110
0.0
120
0.0
130
0.0
111
1.0
121
0.0
131
0.0
112
0.0
122
1.0
132
0.0
 79
     0
146
0.0
 60
     3
 61
     5
292
     1
282
     1
141
0.0
142
0.0
 63
   256
  0
ENDTAB
  0
TABLE
  2
LTYPE
  5
D
330
0
100
AcDbSymbolTable
 70
     1
  0
LTYPE
  5
E
330
D
100
AcDbSymbolTableRecord
100
AcDbLinetypeTableRecord
  2
ByBlock
 70
     0
  3

 72
    65
 73
     0
 40
0.0
  0
LTYPE
  5
F
330
D
100
AcDbSymbolTableRecord
100
AcDbLinetypeTableRecord
  2
ByLayer
 70
     0
  3

 72
    65
 73
     0
 40
0.0
  0
LTYPE
  5
C
330
D
100
AcDbSymbolTableRecord
100
AcDbLinetypeTableRecord
  2
Continuous
 70
     0
  3
Solid line
 72
    65
 73
     0
 40
0.0
  0
ENDTAB
  0
TABLE
  2
LAYER
  5
2
102
{ACAD_XDICTIONARY
360
3
102
}
330
0
100
AcDbSymbolTable
 70
     5
  0
LAYER
  5
1C
330
2
100
AcDbSymbolTableRecord
100
AcDbLayerTableRecord
  2
0
 70
     0
 62
     7
  6
Continuous
370
    -3
390
7
347
A
1001
AcAecLayerStandard
1000

1000

  0
LAYER
  5
213
330
2
100
AcDbSymbolTableRecord
100
AcDbLayerTableRecord
  2
レイアウト枠
 70
     0
 62
     7
  6
Continuous
370
    -3
390
7
347
A
1001
AcAecLayerStandard
1000

1000

  0
LAYER
  5
75
330
2
100
AcDbSymbolTableRecord
100
AcDbLayerTableRecord
  2
用紙サイズ
 70
     0
 62
     3
  6
Continuous
370
    -3
390
7
347
A
1001
AcAecLayerStandard
1000

1000

  0
LAYER
  5
22D
330
2
100
AcDbSymbolTableRecord
100
AcDbLayerTableRecord
  2
内枠
 70
     0
 62
    10
  6
Continuous
290
     0
370
    -3
390
7
347
A
1001
AcAecLayerStandard
1000

1000

  0
LAYER
  5
1
330
2
100
AcDbSymbolTableRecord
100
AcDbLayerTableRecord
  2
文字
 70
     0
 62
     7
  6
Continuous
370
    -3
390
7
347
A
1001
AcAecLayerStandard
1000

1000

  0
ENDTAB
  0
TABLE
  2
STYLE
  5
12
330
0
100
AcDbSymbolTable
 70
     2
  0
STYLE
  5
11
330
12
100
AcDbSymbolTableRecord
100
AcDbTextStyleTableRecord
  2
Text
 70
     0
 40
0.0
 41
0.75
 50
0.0
 71
     0
 42
2.0
  3
msgothic.ttc
  4

1001
ACAD
1000
MS Gothic
1071
    32817
  0
STYLE
  5
240
330
12
100
AcDbSymbolTableRecord
100
AcDbTextStyleTableRecord
  2
Standard
 70
     0
 40
0.0
 41
1.0
 50
0.0
 71
     0
 42
2.5
  3
txt
  4

  0
ENDTAB
  0
TABLE
  2
VIEW
  5
31
330
0
100
AcDbSymbolTable
 70
     0
  0
ENDTAB
  0
TABLE
  2
UCS
  5
32
330
0
100
AcDbSymbolTable
 70
     0
  0
ENDTAB
  0
TABLE
  2
APPID
  5
6
330
0
100
AcDbSymbolTable
 70
     7
  0
APPID
  5
5
330
6
100
AcDbSymbolTableRecord
100
AcDbRegAppTableRecord
  2
ACAD
 70
     0
  0
APPID
  5
20
330
6
100
AcDbSymbolTableRecord
100
AcDbRegAppTableRecord
  2
ACAD_PSEXT
 70
     0
  0
APPID
  5
2E
330
6
100
AcDbSymbolTableRecord
100
AcDbRegAppTableRecord
  2
ACAD_DSTYLE_DIMBREAK
 70
     0
  0
APPID
  5
10
330
6
100
AcDbSymbolTableRecord
100
AcDbRegAppTableRecord
  2
AcAecLayerStandard
 70
     0
  0
APPID
  5
25A
330
6
100
AcDbSymbolTableRecord
100
AcDbRegAppTableRecord
  2
ACAD_MLEADERVER
 70
     0
  0
APPID
  5
6D5
330
6
100
AcDbSymbolTableRecord
100
AcDbRegAppTableRecord
  2
AcadAnnotative
 70
     0
  0
APPID
  5
6D6
330
6
100
AcDbSymbolTableRecord
100
AcDbRegAppTableRecord
  2
AcadAnnoPO
 70
     0
  0
ENDTAB
  0
TABLE
  2
DIMSTYLE
  5
15
330
0
100
AcDbSymbolTable
 70
     1
100
AcDbDimStyleTable
  0
DIMSTYLE
105
14
330
15
100
AcDbSymbolTableRecord
100
AcDbDimStyleTableRecord
  2
SNP100-1
 70
     0
 41
60.0
 42
0.0
 44
30.0
 73
     0
 74
     0
 77
     3
 78
     8
140
100.0
145
10.0
147
25.0
172
     1
178
     0
271
     1
272
     1
289
     1
340
11
341
16
342
29
343
16
344
16
1001
ACAD_DSTYLE_DIMBREAK
1070
   391
1040
2.0
  0
ENDTAB
  0
TABLE
  2
BLOCK_RECORD
  5
17
330
0
100
AcDbSymbolTable
 70
     3
  0
BLOCK_RECORD
  5
18
102
{ACAD_XDICTIONARY
360
19
102
}
330
17
100
AcDbSymbolTableRecord
100
AcDbBlockTableRecord
  2
*Model_Space
340
1E
 70
     0
280
     1
281
     0
  0
BLOCK_RECORD
  5
21
330
17
100
AcDbSymbolTableRecord
100
AcDbBlockTableRecord
  2
*Paper_Space
340
24
 70
     0
280
     1
281
     0
  0
BLOCK_RECORD
  5
29
330
17
100
AcDbSymbolTableRecord
100
AcDbBlockTableRecord
  2
DOT
340
0
 70
     0
280
     1
281
     0
  0
BLOCK_RECORD
  5
16
330
17
100
AcDbSymbolTableRecord
100
AcDbBlockTableRecord
  2
_DOT
340
0
 70
     0
280
     1
281
     0
  0
BLOCK_RECORD
  5
76
330
17
100
AcDbSymbolTableRecord
100
AcDbBlockTableRecord
  2
PLTCONER
340
0
102
{BLKREFS
331
74
331
7D
102
}
 70
     0
280
     1
281
     0
  0
ENDTAB
  0
ENDSEC
  0
SECTION
  2
BLOCKS
  0
BLOCK
  5
1B
330
18
100
AcDbEntity
  8
0
100
AcDbBlockBegin
  2
*Model_Space
 70
     0
 10
0.0
 20
0.0
 30
0.0
  3
*Model_Space
  1

  0
ENDBLK
  5
1D
330
18
100
AcDbEntity
  8
0
100
AcDbBlockEnd
  0
BLOCK
  5
22
330
21
100
AcDbEntity
 67
     1
  8
0
100
AcDbBlockBegin
  2
*Paper_Space
 70
     0
 10
0.0
 20
0.0
 30
0.0
  3
*Paper_Space
  1

  0
ENDBLK
  5
23
330
21
100
AcDbEntity
 67
     1
  8
0
100
AcDbBlockEnd
  0
BLOCK
  5
2A
330
29
100
AcDbEntity
  8
0
100
AcDbBlockBegin
  2
DOT
 70
     0
 10
0.0
 20
0.0
 30
0.0
  3
DOT
  1

  0
LINE
  5
2B
330
29
100
AcDbEntity
  8
0
  6
ByBlock
 62
     0
100
AcDbLine
 10
-0.5
 20
0.0
 30
0.0
 11
-1.0
 21
0.0
 31
0.0
  0
LWPOLYLINE
  5
2C
330
29
100
AcDbEntity
  8
0
  6
ByBlock
 62
     0
100
AcDbPolyline
 90
        2
 70
     1
 43
0.5
 10
-0.25
 20
0.0
 42
1.0
 10
0.25
 20
0.0
 42
1.0
  0
ENDBLK
  5
2D
330
29
100
AcDbEntity
  8
0
100
AcDbBlockEnd
  0
BLOCK
  5
25
330
16
100
AcDbEntity
  8
0
100
AcDbBlockBegin
  2
_DOT
 70
     0
 10
0.0
 20
0.0
 30
0.0
  3
_DOT
  1

  0
LWPOLYLINE
  5
26
330
16
100
AcDbEntity
  8
0
  6
ByBlock
 62
     0
370
    -2
380
     1
100
AcDbPolyline
 90
        2
 70
     1
 43
0.5
 10
-0.25
 20
0.0
 42
1.0
 10
0.25
 20
0.0
 42
1.0
  0
LINE
  5
27
330
16
100
AcDbEntity
  8
0
  6
ByBlock
 62
     0
370
    -2
380
     1
100
AcDbLine
 10
-0.5
 20
0.0000000000000001
 30
0.0
 11
-1.0
 21
0.0000000000000002
 31
0.0
  0
ENDBLK
  5
28
330
16
100
AcDbEntity
  8
0
100
AcDbBlockEnd
  0
BLOCK
  5
77
330
76
100
AcDbEntity
  8
0
100
AcDbBlockBegin
  2
PLTCONER
 70
     0
 10
0.0
 20
0.0
 30
0.0
  3
PLTCONER
  1

  0
ARC
  5
78
330
76
100
AcDbEntity
  8
用紙サイズ
100
AcDbCircle
 10
0.0
 20
0.0
 30
0.0
 40
10.0
100
AcDbArc
 50
135.0
 51
315.0
  0
ARC
  5
79
330
76
100
AcDbEntity
  8
用紙サイズ
100
AcDbCircle
 10
0.0
 20
0.0
 30
0.0
 40
5.0
100
AcDbArc
 50
135.0
 51
315.0
  0
LINE
  5
7A
330
76
100
AcDbEntity
  8
用紙サイズ
100
AcDbLine
 10
3.535533905932738
 20
-3.535533905932738
 30
0.0
 11
7.071067811865476
 21
-7.071067811865475
 31
0.0
  0
LINE
  5
7B
330
76
100
AcDbEntity
  8
用紙サイズ
100
AcDbLine
 10
-7.071067811865476
 20
7.071067811865476
 30
0.0
 11
-3.535533905932738
 21
3.535533905932738
 31
0.0
  0
ENDBLK
  5
7C
330
76
100
AcDbEntity
  8
0
100
AcDbBlockEnd
  0
ENDSEC
  0
SECTION
  2
ENTITIES
  0
LINE
  5
6E
330
18
100
AcDbEntity
  8
文字
 48
100.0
100
AcDbLine
 10
339.25
 20
504.4729670329672
 30
0.0
 11
404.4999999999999
 21
504.4729670329672
 31
0.0
  0
LINE
  5
6F
330
18
100
AcDbEntity
  8
文字
 48
100.0
100
AcDbLine
 10
339.25
 20
503.9729670329672
 30
0.0
 11
404.4999999999999
 21
503.9729670329672
 31
0.0
  0
TEXT
  5
71
330
18
100
AcDbEntity
  8
文字
 48
100.0
100
AcDbText
 10
383.9342639593909
 20
359.8729670329672
 30
0.0
 40
2.7
  1
意
 41
0.7500000000000001
 72
     1
 11
385.25
 21
361.2229670329672
 31
0.0
100
AcDbText
 73
     2
  0
TEXT
  5
72
330
18
100
AcDbEntity
  8
文字
 48
100.0
100
AcDbText
 10
383.5
 20
351.1729670329672
 30
0.0
 40
1.8
  1
No.
 41
0.7500000000000001
 11
383.5
 21
352.9729670329672
 31
0.0
100
AcDbText
 73
     3
  0
INSERT
  5
74
330
18
100
AcDbEntity
  8
用紙サイズ
100
AcDbBlockReference
  2
PLTCONER
 10
412.5
 20
629.9729670329672
 30
0.0
 41
0.5
 42
0.5
 43
0.5
 50
180.0
  0
INSERT
  5
7D
330
18
100
AcDbEntity
  8
用紙サイズ
100
AcDbBlockReference
  2
PLTCONER
 10
7.5
 20
348.9729670329672
 30
0.0
 41
0.5
 42
0.5
 43
0.5
  0
TEXT
  5
88
330
18
100
AcDbEntity
  8
文字
 48
100.0
100
AcDbText
 10
381.7994923857868
 20
624.521190383221
 30
0.0
 40
3.0
  1
2016年版（20161220） 
 41
0.75
 72
     2
 11
412.5
 21
623.9729670329672
 31
0.0
100
AcDbText
 73
     1
  0
MTEXT
  5
1A2
330
18
100
AcDbEntity
  8
文字
 48
100.0
100
AcDbMText
 10
27.5
 20
565.2333468836005
 30
0.0
 40
1.8
 41
79.25
 46
0.0
 71
     1
 72
     5
  3
\pxi0,l1.296296,r1.296296,sm1;{\fＭＳ ゴシック|b0|i0|c128|p49;設計用鉛直震度\P\pt12,19,27;K\H0.666667x;V\H1.5x; :　　・ 1.0^I・ 0.5^I・ K\H0.666666x;H\H1.500001x; / 2^I・（         ）\P\pi0,l1.111111,r1.111111,b0.555556,tz;層間変位追従性能は下記とする。\P\pi0.648148,l1.296296,r1.296296,b0
  1
,t21.388889;補修の必要無しに継続使用できる限界^I※±H / 300　　・（         ）\P部材に破損、脱落、有害な残留変形が起こらず不定形シーリング材の\P\pi1.703704,l1.296296;補修のみで継続使用できる限界^I※±H / 200　　・（         ）\P\pi0.648148,l1.296296;部材に破壊、脱落を生じない限界^I※±H / 100　　・±H / 150　　・（         ）}
 73
     1
 44
1.0
  0
LWPOLYLINE
  5
1A5
330
18
100
AcDbEntity
  8
文字
 48
100.0
100
AcDbPolyline
 90
        4
 70
     1
 43
0.0
 10
88.125
 20
566.9729670329672
 10
107.125
 20
566.9729670329672
 10
107.125
 20
569.9729670329672
 10
88.125
 20
569.9729670329672
  0
LWPOLYLINE
  5
1A6
330
18
100
AcDbEntity
  8
文字
 48
100.0
100
AcDbPolyline
 90
        4
 70
     1
 43
0.0
 10
88.125
 20
569.9729670329672
 10
107.125
 20
569.9729670329672
 10
107.125
 20
572.9729670329672
 10
88.125
 20
572.9729670329672
  0
LWPOLYLINE
  5
1A7
330
18
100
AcDbEntity
  8
文字
 48
100.0
100
AcDbPolyline
 90
        4
 70
     1
 43
0.0
 10
88.125
 20
572.9729670329672
 10
107.125
 20
572.9729670329672
 10
107.125
 20
575.9729670329672
 10
88.125
 20
575.9729670329672
  0
LWPOLYLINE
  5
1AA
330
18
100
AcDbEntity
  8
文字
 48
100.0
100
AcDbPolyline
 90
        4
 70
     1
 43
0.0
 10
88.125
 20
575.9729670329672
 10
107.125
 20
575.9729670329672
 10
107.125
 20
579.9729670329672
 10
88.125
 20
579.9729670329672
  0
LWPOLYLINE
  5
1AC
330
18
100
AcDbEntity
  8
文字
 48
100.0
100
AcDbPolyline
 90
        4
 70
     1
 43
0.0
 10
69.125
 20
566.9729670329672
 10
88.125
 20
566.9729670329672
 10
88.125
 20
569.9729670329672
 10
69.125
 20
569.9729670329672
  0
LWPOLYLINE
  5
1AD
330
18
100
AcDbEntity
  8
文字
 48
100.0
100
AcDbPolyline
 90
        4
 70
     1
 43
0.0
 10
69.125
 20
569.9729670329672
 10
88.125
 20
569.9729670329672
 10
88.125
 20
572.9729670329672
 10
69.125
 20
572.9729670329672
  0
LWPOLYLINE
  5
1AE
330
18
100
AcDbEntity
  8
文字
 48
100.0
100
AcDbPolyline
 90
        4
 70
     1
 43
0.0
 10
69.125
 20
572.9729670329672
 10
88.125
 20
572.9729670329672
 10
88.125
 20
575.9729670329672
 10
69.125
 20
575.9729670329672
  0
LWPOLYLINE
  5
1AF
330
18
100
AcDbEntity
  8
文字
 48
100.0
100
AcDbPolyline
 90
        4
 70
     1
 43
0.0
 10
69.125
 20
575.9729670329672
 10
88.125
 20
575.9729670329672
 10
88.125
 20
579.9729670329672
 10
69.125
 20
579.9729670329672
  0
LWPOLYLINE
  5
1B3
330
18
100
AcDbEntity
  8
文字
 48
100.0
100
AcDbPolyline
 90
        4
 70
     1
 43
0.0
 10
46.125
 20
566.9729670329672
 10
65.125
 20
566.9729670329672
 10
65.125
 20
569.9729670329672
 10
46.125
 20
569.9729670329672
  0
LWPOLYLINE
  5
1B4
330
18
100
AcDbEntity
  8
文字
 48
100.0
100
AcDbPolyline
 90
        4
 70
     1
 43
0.0
 10
46.125
 20
569.9729670329672
 10
65.125
 20
569.9729670329672
 10
65.125
 20
572.9729670329672
 10
46.125
 20
572.9729670329672
  0
LWPOLYLINE
  5
1B5
330
18
100
AcDbEntity
  8
文字
 48
100.0
100
AcDbPolyline
 90
        4
 70
     1
 43
0.0
 10
46.125
 20
572.9729670329672
 10
65.125
 20
572.9729670329672
 10
65.125
 20
575.9729670329672
 10
46.125
 20
575.9729670329672
  0
LWPOLYLINE
  5
1BA
330
18
100
AcDbEntity
  8
文字
 48
100.0
100
AcDbPolyline
 90
        4
 70
     1
 43
0.0
 10
46.125
 20
575.9729670329672
 10
65.125
 20
575.9729670329672
 10
65.125
 20
579.9729670329672
 10
46.125
 20
579.9729670329672
  0
LWPOLYLINE
  5
1BD
330
18
100
AcDbEntity
  8
文字
 48
100.0
100
AcDbPolyline
 90
        4
 70
     1
 43
0.0
 10
27.125
 20
566.9729670329672
 10
46.125
 20
566.9729670329672
 10
46.125
 20
569.9729670329672
 10
27.125
 20
569.9729670329672
  0
LWPOLYLINE
  5
1BE
330
18
100
AcDbEntity
  8
文字
 48
100.0
100
AcDbPolyline
 90
        4
 70
     1
 43
0.0
 10
27.125
 20
569.9729670329672
 10
46.125
 20
569.9729670329672
 10
46.125
 20
572.9729670329672
 10
27.125
 20
572.9729670329672
  0
LWPOLYLINE
  5
1BF
330
18
100
AcDbEntity
  8
文字
 48
100.0
100
AcDbPolyline
 90
        4
 70
     1
 43
0.0
 10
27.125
 20
572.9729670329672
 10
46.125
 20
572.9729670329672
 10
46.125
 20
575.9729670329672
 10
27.125
 20
575.9729670329672
  0
LWPOLYLINE
  5
1C0
330
18
100
AcDbEntity
  8
文字
 48
100.0
100
AcDbPolyline
 90
        4
 70
     1
 43
0.0
 10
27.125
 20
575.9729670329672
 10
46.125
 20
575.9729670329672
 10
46.125
 20
579.9729670329672
 10
27.125
 20
579.9729670329672
  0
TEXT
  5
1C4
330
18
100
AcDbEntity
  8
文字
 48
100.0
100
AcDbText
 10
48.04631979695431
 20
592.0729670329672
 30
0.0
 40
1.8
  1
※1.5 ・(     )
 41
0.7500000000000001
 72
     1
 11
54.625
 21
592.9729670329672
 31
0.0
100
AcDbText
 73
     2
  0
TEXT
  5
1C5
330
18
100
AcDbEntity
  8
文字
 48
100.0
100
AcDbText
 10
82.72154015290504
 20
595.1729670329672
 30
0.0
 40
1.6
  1
上下端支持
 41
0.7500000000000001
 72
     1
 11
85.2929687243336
 21
595.9729670329672
 31
0.0
100
AcDbText
 73
     2
  0
TEXT
  5
1C6
330
18
100
AcDbEntity
  8
文字
 48
100.0
100
AcDbText
 10
67.56785714285714
 20
595.1729670329672
 30
0.0
 40
1.6
  1
左記以外
 41
0.7500000000000001
 72
     1
 11
69.625
 21
595.9729670329672
 31
0.0
100
AcDbText
 73
     2
  0
TEXT
  5
1C7
330
18
100
AcDbEntity
  8
文字
 48
100.0
100
AcDbText
 10
97.56785714285714
 20
595.1729670329672
 30
0.0
 40
1.6
  1
左記以外
 41
0.7500000000000001
 72
     1
 11
99.625
 21
595.9729670329672
 31
0.0
100
AcDbText
 73
     2
  0
TEXT
  5
1C8
330
18
100
AcDbEntity
  8
文字
 48
100.0
100
AcDbText
 10
90.06785714285714
 20
598.1729670329672
 30
0.0
 40
1.6
  1
左記以外
 41
0.7500000000000001
 72
     1
 11
92.125
 21
598.9729670329672
 31
0.0
100
AcDbText
 73
     2
  0
TEXT
  5
1C9
330
18
100
AcDbEntity
  8
文字
 48
100.0
100
AcDbText
 10
58.525
 20
598.1729670329672
 30
0.0
 40
1.6
  1
外壁、避難通路
 41
0.7500000000000001
 72
     1
 11
62.125
 21
598.9729670329672
 31
0.0
100
AcDbText
 73
     2
  0
TEXT
  5
1CA
330
18
100
AcDbEntity
  8
文字
 48
100.0
100
AcDbText
 10
52.05357142857143
 20
595.1729670329672
 30
0.0
 40
1.6
  1
上下端支持
 41
0.7500000000000001
 72
     1
 11
54.625
 21
595.9729670329672
 31
0.0
100
AcDbText
 73
     2
  0
LWPOLYLINE
  5
1CB
330
18
100
AcDbEntity
  8
文字
 48
100.0
100
AcDbPolyline
 90
        4
 70
     1
 43
0.0
 10
92.125
 20
594.4729670329672
 10
107.125
 20
594.4729670329672
 10
107.125
 20
597.4729670329672
 10
92.125
 20
597.4729670329672
  0
LWPOLYLINE
  5
1CC
330
18
100
AcDbEntity
  8
文字
 48
100.0
100
AcDbPolyline
 90
        4
 70
     1
 43
0.0
 10
92.125
 20
591.4729670329672
 10
107.125
 20
591.4729670329672
 10
107.125
 20
594.4729670329672
 10
92.125
 20
594.4729670329672
  0
LWPOLYLINE
  5
1CD
330
18
100
AcDbEntity
  8
文字
 48
100.0
100
AcDbPolyline
 90
        4
 70
     1
 43
0.0
 10
92.125
 20
588.4729670329672
 10
107.125
 20
588.4729670329672
 10
107.125
 20
591.4729670329672
 10
92.125
 20
591.4729670329672
  0
LWPOLYLINE
  5
1CE
330
18
100
AcDbEntity
  8
文字
 48
100.0
100
AcDbPolyline
 90
        4
 70
     1
 43
0.0
 10
92.125
 20
585.4729670329672
 10
107.125
 20
585.4729670329672
 10
107.125
 20
588.4729670329672
 10
92.125
 20
588.4729670329672
  0
LINE
  5
1CF
330
18
100
AcDbEntity
  8
文字
 48
100.0
100
AcDbLine
 10
107.125
 20
597.4729670329672
 30
0.0
 11
107.125
 21
585.4729670329672
 31
0.0
  0
LWPOLYLINE
  5
1D0
330
18
100
AcDbEntity
  8
文字
 48
100.0
100
AcDbPolyline
 90
        4
 70
     1
 43
0.0
 10
77.125
 20
594.4729670329672
 10
92.125
 20
594.4729670329672
 10
92.125
 20
597.4729670329672
 10
77.125
 20
597.4729670329672
  0
LWPOLYLINE
  5
1D1
330
18
100
AcDbEntity
  8
文字
 48
100.0
100
AcDbPolyline
 90
        4
 70
     1
 43
0.0
 10
77.125
 20
591.4729670329672
 10
92.125
 20
591.4729670329672
 10
92.125
 20
594.4729670329672
 10
77.125
 20
594.4729670329672
  0
LWPOLYLINE
  5
1D2
330
18
100
AcDbEntity
  8
文字
 48
100.0
100
AcDbPolyline
 90
        4
 70
     1
 43
0.0
 10
77.125
 20
588.4729670329672
 10
92.125
 20
588.4729670329672
 10
92.125
 20
591.4729670329672
 10
77.125
 20
591.4729670329672
  0
LWPOLYLINE
  5
1D3
330
18
100
AcDbEntity
  8
文字
 48
100.0
100
AcDbPolyline
 90
        4
 70
     1
 43
0.0
 10
77.125
 20
585.4729670329672
 10
92.125
 20
585.4729670329672
 10
92.125
 20
588.4729670329672
 10
77.125
 20
588.4729670329672
  0
LINE
  5
1D4
330
18
100
AcDbEntity
  8
文字
 48
100.0
100
AcDbLine
 10
92.125
 20
597.4729670329672
 30
0.0
 11
92.125
 21
585.4729670329672
 31
0.0
  0
LWPOLYLINE
  5
1D5
330
18
100
AcDbEntity
  8
文字
 48
100.0
100
AcDbPolyline
 90
        4
 70
     1
 43
0.0
 10
77.125
 20
597.4729670329672
 10
107.125
 20
597.4729670329672
 10
107.125
 20
600.4729670329672
 10
77.125
 20
600.4729670329672
  0
LWPOLYLINE
  5
1D6
330
18
100
AcDbEntity
  8
文字
 48
100.0
100
AcDbPolyline
 90
        4
 70
     1
 43
0.0
 10
62.125
 20
594.4729670329672
 10
77.125
 20
594.4729670329672
 10
77.125
 20
597.4729670329672
 10
62.125
 20
597.4729670329672
  0
LWPOLYLINE
  5
1D7
330
18
100
AcDbEntity
  8
文字
 48
100.0
100
AcDbPolyline
 90
        4
 70
     1
 43
0.0
 10
62.125
 20
591.4729670329672
 10
77.125
 20
591.4729670329672
 10
77.125
 20
594.4729670329672
 10
62.125
 20
594.4729670329672
  0
LWPOLYLINE
  5
1D8
330
18
100
AcDbEntity
  8
文字
 48
100.0
100
AcDbPolyline
 90
        4
 70
     1
 43
0.0
 10
62.125
 20
588.4729670329672
 10
77.125
 20
588.4729670329672
 10
77.125
 20
591.4729670329672
 10
62.125
 20
591.4729670329672
  0
LWPOLYLINE
  5
1D9
330
18
100
AcDbEntity
  8
文字
 48
100.0
100
AcDbPolyline
 90
        4
 70
     1
 43
0.0
 10
62.125
 20
585.4729670329672
 10
77.125
 20
585.4729670329672
 10
77.125
 20
588.4729670329672
 10
62.125
 20
588.4729670329672
  0
LINE
  5
1DA
330
18
100
AcDbEntity
  8
文字
 48
100.0
100
AcDbLine
 10
77.125
 20
597.4729670329672
 30
0.0
 11
77.125
 21
585.4729670329672
 31
0.0
  0
LWPOLYLINE
  5
1DB
330
18
100
AcDbEntity
  8
文字
 48
100.0
100
AcDbPolyline
 90
        4
 70
     1
 43
0.0
 10
47.125
 20
594.4729670329672
 10
62.125
 20
594.4729670329672
 10
62.125
 20
597.4729670329672
 10
47.125
 20
597.4729670329672
  0
LWPOLYLINE
  5
1DC
330
18
100
AcDbEntity
  8
文字
 48
100.0
100
AcDbPolyline
 90
        4
 70
     1
 43
0.0
 10
47.125
 20
591.4729670329672
 10
62.125
 20
591.4729670329672
 10
62.125
 20
594.4729670329672
 10
47.125
 20
594.4729670329672
  0
LWPOLYLINE
  5
1DD
330
18
100
AcDbEntity
  8
文字
 48
100.0
100
AcDbPolyline
 90
        4
 70
     1
 43
0.0
 10
47.125
 20
588.4729670329672
 10
62.125
 20
588.4729670329672
 10
62.125
 20
591.4729670329672
 10
47.125
 20
591.4729670329672
  0
LWPOLYLINE
  5
1DE
330
18
100
AcDbEntity
  8
文字
 48
100.0
100
AcDbPolyline
 90
        4
 70
     1
 43
0.0
 10
47.125
 20
585.4729670329672
 10
62.125
 20
585.4729670329672
 10
62.125
 20
588.4729670329672
 10
47.125
 20
588.4729670329672
  0
LINE
  5
1E3
330
18
100
AcDbEntity
  8
文字
 48
100.0
100
AcDbLine
 10
62.125
 20
597.4729670329672
 30
0.0
 11
62.125
 21
585.4729670329672
 31
0.0
  0
LWPOLYLINE
  5
1E4
330
18
100
AcDbEntity
  8
文字
 48
100.0
100
AcDbPolyline
 90
        4
 70
     1
 43
0.0
 10
47.125
 20
597.4729670329672
 10
77.125
 20
597.4729670329672
 10
77.125
 20
600.4729670329672
 10
47.125
 20
600.4729670329672
  0
LWPOLYLINE
  5
1E7
330
18
100
AcDbEntity
  8
文字
 48
100.0
100
AcDbPolyline
 90
        4
 70
     1
 43
0.0
 10
27.125
 20
585.4729670329672
 10
47.125
 20
585.4729670329672
 10
47.125
 20
588.4729670329672
 10
27.125
 20
588.4729670329672
  0
LWPOLYLINE
  5
1E8
330
18
100
AcDbEntity
  8
文字
 48
100.0
100
AcDbPolyline
 90
        4
 70
     1
 43
0.0
 10
27.125
 20
588.4729670329672
 10
47.125
 20
588.4729670329672
 10
47.125
 20
591.4729670329672
 10
27.125
 20
591.4729670329672
  0
LWPOLYLINE
  5
1E9
330
18
100
AcDbEntity
  8
文字
 48
100.0
100
AcDbPolyline
 90
        4
 70
     1
 43
0.0
 10
27.125
 20
591.4729670329672
 10
47.125
 20
591.4729670329672
 10
47.125
 20
594.4729670329672
 10
27.125
 20
594.4729670329672
  0
LWPOLYLINE
  5
1EB
330
18
100
AcDbEntity
  8
文字
 48
100.0
100
AcDbPolyline
 90
        4
 70
     1
 43
0.0
 10
27.125
 20
594.4729670329672
 10
47.125
 20
594.4729670329672
 10
47.125
 20
600.4729670329672
 10
27.125
 20
600.4729670329672
  0
MTEXT
  5
20E
330
18
100
AcDbEntity
  8
文字
 48
100.0
100
AcDbMText
 10
108.75
 20
576.9729670329672
 30
0.0
 40
2.0
 41
18.0
 46
7.01730600385064
 71
     1
 72
     5
  1
\pxi0,l0.5,b0.5,sm1;{\fＭＳ ゴシック|b0|i0|c128|p49;構造体の鉛直変位}
 73
     1
 44
1.0
1001
ACAD
1000
ACAD_MTEXT_DEFINED_HEIGHT_BEGIN
1070
    46
1040
7.01730600385064
1000
ACAD_MTEXT_DEFINED_HEIGHT_END
  0
MTEXT
  5
210
330
18
100
AcDbEntity
  8
文字
 48
100.0
100
AcDbMText
 10
7.500000000000028
 20
538.9729670329672
 30
0.0
 40
2.0
 41
18.0
 46
7.01730600385064
 71
     1
 72
     5
  1
\pxi0,l0.666667,r0.666667,b0.666667,sm1;{\fＭＳ ゴシック|b0|i0|c128|p49;耐風圧性能}
 73
     1
 44
1.0
1001
ACAD
1000
ACAD_MTEXT_DEFINED_HEIGHT_BEGIN
1070
    46
1040
7.01730600385064
1000
ACAD_MTEXT_DEFINED_HEIGHT_END
  0
LINE
  5
212
330
18
100
AcDbEntity
  8
レイアウト枠
 48
100.0
100
AcDbLine
 10
210.0
 20
576.9729670329672
 30
0.0
 11
108.75
 21
576.9729670329672
 31
0.0
  0
MTEXT
  5
214
330
18
100
AcDbEntity
  8
文字
 48
100.0
100
AcDbMText
 10
7.5
 20
376.9729670329672
 30
0.0
 40
2.0
 41
18.0
 46
7.01730600385064
 71
     1
 72
     5
  1
\pxi0,l0.666667,r0.666667,b0.666667,sm1;{\fＭＳ ゴシック|b0|i0|c128|p49;屋外天井}
 73
     1
 44
1.0
1001
ACAD
1000
ACAD_MTEXT_DEFINED_HEIGHT_BEGIN
1070
    46
1040
7.01730600385064
1000
ACAD_MTEXT_DEFINED_HEIGHT_END
  0
MTEXT
  5
215
330
18
100
AcDbEntity
  8
文字
 48
100.0
100
AcDbMText
 10
7.5
 20
427.9729670329672
 30
0.0
 40
2.0
 41
18.0
 46
7.01730600385064
 71
     1
 72
     5
  1
\pxi0,l0.666667,r0.666667,b0.666667,sm1;{\fＭＳ ゴシック|b0|i0|c128|p49;特定天井}
 73
     1
 44
1.0
1001
ACAD
1000
ACAD_MTEXT_DEFINED_HEIGHT_BEGIN
1070
    46
1040
7.01730600385064
1000
ACAD_MTEXT_DEFINED_HEIGHT_END
  0
MTEXT
  5
216
330
18
100
AcDbEntity
  8
文字
 48
100.0
100
AcDbMText
 10
7.5
 20
466.9729670329672
 30
0.0
 40
2.0
 41
18.0
 46
7.01730600385064
 71
     1
 72
     5
  1
\pxi0,l0.666667,r0.666667,b0.666667,sm1;{\fＭＳ ゴシック|b0|i0|c128|p49;耐雪性能}
 73
     1
 44
1.0
1001
ACAD
1000
ACAD_MTEXT_DEFINED_HEIGHT_BEGIN
1070
    46
1040
7.01730600385064
1000
ACAD_MTEXT_DEFINED_HEIGHT_END
  0
LINE
  5
217
330
18
100
AcDbEntity
  8
レイアウト枠
 48
100.0
100
AcDbLine
 10
108.75
 20
376.9729670329672
 30
0.0
 11
7.5
 21
376.9729670329672
 31
0.0
  0
LINE
  5
218
330
18
100
AcDbEntity
  8
レイアウト枠
 48
100.0
100
AcDbLine
 10
108.75
 20
427.9729670329672
 30
0.0
 11
7.5
 21
427.9729670329672
 31
0.0
  0
LINE
  5
219
330
18
100
AcDbEntity
  8
レイアウト枠
 48
100.0
100
AcDbLine
 10
108.75
 20
466.9729670329672
 30
0.0
 11
7.5
 21
466.9729670329672
 31
0.0
  0
LINE
  5
21B
330
18
100
AcDbEntity
  8
レイアウト枠
 48
100.0
100
AcDbLine
 10
108.75
 20
616.9729670329672
 30
0.0
 11
7.5
 21
616.9729670329672
 31
0.0
  0
MTEXT
  5
21D
330
18
100
AcDbEntity
  8
文字
 48
100.0
100
AcDbMText
 10
108.75
 20
616.9729670329672
 30
0.0
 40
2.0
 41
18.0
 46
7.01730600385064
 71
     1
 72
     5
  1
\pxi0,l0.666667,r0.666667,b0.666667,sm1;{\fＭＳ ゴシック|b0|i0|c128|p49;エキスパンション ジョイント}
 73
     1
 44
1.0
1001
ACAD
1000
ACAD_MTEXT_DEFINED_HEIGHT_BEGIN
1070
    46
1040
7.01730600385064
1000
ACAD_MTEXT_DEFINED_HEIGHT_END
  0
MTEXT
  5
21E
330
18
100
AcDbEntity
  8
文字
 48
100.0
100
AcDbMText
 10
7.5
 20
616.9729670329672
 30
0.0
 40
2.0
 41
18.0
 46
7.01730600385064
 71
     1
 72
     5
  1
\pxi0,l0.666667,r0.666667,b0.666667,sm1;{\fＭＳ ゴシック|b0|i0|c128|p49;耐震性能\P\pi0,l0,r0,b0,s*;}
 73
     1
 44
1.0
1001
ACAD
1000
ACAD_MTEXT_DEFINED_HEIGHT_BEGIN
1070
    46
1040
7.01730600385064
1000
ACAD_MTEXT_DEFINED_HEIGHT_END
  0
TEXT
  5
21F
330
18
100
AcDbEntity
  8
文字
 48
100.0
100
AcDbText
 10
217.0
 20
619.2229670329672
 30
0.0
 40
2.5
  1
設備機器の耐震安全性に関わる特記仕様
 41
0.75
 11
217.0
 21
620.4729670329672
 31
0.0
100
AcDbText
 73
     2
  0
LWPOLYLINE
  5
220
330
18
100
AcDbEntity
  8
レイアウト枠
 48
100.0
100
AcDbPolyline
 90
        4
 70
     1
 43
0.0
 10
210.0
 20
363.9729670329672
 10
311.25
 20
363.9729670329672
 10
311.25
 20
623.9729670329672
 10
210.0
 20
623.9729670329672
  0
TEXT
  5
221
330
18
100
AcDbEntity
  8
文字
 48
100.0
100
AcDbText
 10
14.5
 20
619.2229670329672
 30
0.0
 40
2.5
  1
非構造部材の地震、風、雪に関する構造安全性に関わる特記仕様
 41
0.75
 11
14.5
 21
620.4729670329672
 31
0.0
100
AcDbText
 73
     2
  0
MTEXT
  5
223
330
18
100
AcDbEntity
  8
文字
 48
100.0
100
AcDbMText
 10
25.5
 20
616.9729670329672
 30
0.0
 40
1.8
 41
83.25
 46
0.0
 71
     1
 72
     5
  1
\pxi0,l1.111111,r1.111111,b1,sm1,ql;{\fＭＳ ゴシック|b0|i0|c128|p49;非構造部材は、以下の慣性力に対して、各部材、取り付け金物が短期許容応力度内にあり、破損や有害な残留ひずみが}生じないものとする。\P\pi0,l1.111111,r1.111111,b0,q*;短期許容応力度が定められていない材料については{\H0.833333x;、}関連基規準が定める値によるか{\H0.833333x;、}別途特記する。 
 73
     1
 44
1.0
  0
MTEXT
  5
225
330
18
100
AcDbEntity
  8
文字
 48
100.0
100
AcDbMText
 10
329.25
 20
623.9729670329672
 30
0.0
 40
2.2
 41
83.25
 46
260.0
 71
     1
 72
     5
  3
\pxi1.136363,b0.909091,sm1;\P\pi-2.272727,l4.545455,r0.840909,b2.272727,t5;1．^I本特記仕様書(例)は(公社)日本建築士会連合会、(一社)日本建築構造技術者協会が非構造部材に関する部分を、(一社)建築設備技術者協会が設備機器に関する部分を作成した。本特記仕様書は、これら3団体に加えて、\P\pi-2.545455,l4.545455,r0.909091,b0;^I(公社)日本建築家協会、(一社)日本建築士事務所協会連合会、(
  3
一社)日本設備設計事務所協会の会員は、各団体の会員専用ホームページ等からダウンロードし、使用することができる。\P\pi-2.272727,l4.545455,r0.840909,b2.272727,tz;２．^I本特記仕様書(例)は、建築の特記仕様書の最後に追加して使用することを意図して作成されている。 \P３．^I非構造部材については、地震、風、雪に対する構造安全性を確保するために必要な、最小限の内容を特記するものとしている。これらの特記に関しては、一部を除き、公共建築工事標準仕様書　建築工事編
  3
（国土交通省大臣官房営繕部：平成28年度版）等で特記すべき事項とされていないが、非構造部材の安全性確保のために必要な特記である。{\C152;\c12611584; \P}４．^I設備機器については耐震安全性について支持方法等に限定して特記することとしており、機器本体の耐震性能について規定する場合には別途特記する必要がある。 同様に設備機器の風や雪についての性能は特記することにはしておらず、それらに対する性能を規定する必要がある場合は特記を追加する必要がある。\P５．^I※として標準値の案が示されて
  1
いるものがあるが、この値についても設計者が再確認のうえ適正かどうかを判断して、必要に応じ適正と設計者が判断した値を書き込むないしは選択することとしている。  \P６．^I本注意事項は、特記仕様書使用に当たっては消去して使用すること。
 73
     1
 44
1.0
1001
ACAD
1000
ACAD_MTEXT_DEFINED_HEIGHT_BEGIN
1070
    46
1040
260.0
1000
ACAD_MTEXT_DEFINED_HEIGHT_END
  0
LWPOLYLINE
  5
226
330
18
100
AcDbEntity
  8
レイアウト枠
 48
100.0
100
AcDbPolyline
 90
        4
 70
     1
 43
0.0
 10
7.5
 20
348.9729670329672
 10
412.5
 20
348.9729670329672
 10
412.5
 20
623.9729670329672
 10
7.5
 20
623.9729670329672
  0
LINE
  5
227
330
18
100
AcDbEntity
  8
レイアウト枠
 48
100.0
100
AcDbLine
 10
7.5
 20
616.9729670329672
 30
0.0
 11
7.5
 21
363.9729670329672
 31
0.0
  0
LINE
  5
228
330
18
100
AcDbEntity
  8
レイアウト枠
 48
100.0
100
AcDbLine
 10
25.5
 20
616.9729670329672
 30
0.0
 11
25.5
 21
363.9729670329672
 31
0.0
  0
LWPOLYLINE
  5
229
330
18
100
AcDbEntity
  8
レイアウト枠
 48
100.0
100
AcDbPolyline
 90
        4
 70
     1
 43
0.0
 10
311.25
 20
363.9729670329672
 10
412.5
 20
363.9729670329672
 10
412.5
 20
348.9729670329672
 10
311.25
 20
348.9729670329672
  0
LWPOLYLINE
  5
22A
330
18
100
AcDbEntity
  8
レイアウト枠
 48
100.0
100
AcDbPolyline
 90
        4
 70
     1
 43
0.0
 10
108.75
 20
363.9729670329672
 10
7.5
 20
363.9729670329672
 10
7.5
 20
616.9729670329672
 10
108.75
 20
616.9729670329672
  0
LWPOLYLINE
  5
22B
330
18
100
AcDbEntity
  8
用紙サイズ
100
AcDbPolyline
 90
        4
 70
     1
 43
0.0
 10
420.0
 20
340.4729670329672
 10
0.0
 20
340.4729670329672
 10
0.0
 20
637.4729670329672
 10
420.0
 20
637.4729670329672
  0
LWPOLYLINE
  5
22C
330
18
100
AcDbEntity
  8
内枠
 48
100.0
100
AcDbPolyline
 90
        4
 70
     1
 43
0.0
 10
7.5
 20
348.9729670329672
 10
412.5
 20
348.9729670329672
 10
412.5
 20
623.9729670329672
 10
7.5
 20
623.9729670329672
  0
LINE
  5
22E
330
18
100
AcDbEntity
  8
レイアウト枠
 48
100.0
100
AcDbLine
 10
126.75
 20
616.9729670329672
 30
0.0
 11
126.75
 21
363.9729670329672
 31
0.0
  0
LWPOLYLINE
  5
22F
330
18
100
AcDbEntity
  8
レイアウト枠
 48
100.0
100
AcDbPolyline
 90
        4
 70
     1
 43
0.0
 10
210.0
 20
363.9729670329672
 10
108.75
 20
363.9729670329672
 10
108.75
 20
616.9729670329672
 10
210.0
 20
616.9729670329672
  0
LINE
  5
230
330
18
100
AcDbEntity
  8
レイアウト枠
 48
100.0
100
AcDbLine
 10
228.0
 20
616.9729670329672
 30
0.0
 11
228.0
 21
363.9729670329672
 31
0.0
  0
LWPOLYLINE
  5
231
330
18
100
AcDbEntity
  8
レイアウト枠
 48
100.0
100
AcDbPolyline
 90
        4
 70
     1
 43
0.0
 10
311.25
 20
363.9729670329672
 10
210.0
 20
363.9729670329672
 10
210.0
 20
616.9729670329672
 10
311.25
 20
616.9729670329672
  0
LINE
  5
232
330
18
100
AcDbEntity
  8
レイアウト枠
 48
100.0
100
AcDbLine
 10
329.25
 20
623.9729670329672
 30
0.0
 11
329.25
 21
363.9729670329672
 31
0.0
  0
LWPOLYLINE
  5
233
330
18
100
AcDbEntity
  8
レイアウト枠
 48
100.0
100
AcDbPolyline
 90
        4
 70
     1
 43
0.0
 10
412.5
 20
363.9729670329672
 10
311.25
 20
363.9729670329672
 10
311.25
 20
623.9729670329672
 10
412.5
 20
623.9729670329672
  0
LWPOLYLINE
  5
234
330
18
100
AcDbEntity
  8
レイアウト枠
 48
100.0
100
AcDbPolyline
 90
        4
 70
     1
 43
0.0
 10
7.5
 20
348.9729670329672
 10
311.25
 20
348.9729670329672
 10
311.25
 20
363.9729670329672
 10
7.5
 20
363.9729670329672
  0
LINE
  5
235
330
18
100
AcDbEntity
  8
レイアウト枠
 48
100.0
100
AcDbLine
 10
311.25
 20
353.9729670329672
 30
0.0
 11
412.5
 21
353.9729670329672
 31
0.0
  0
LWPOLYLINE
  5
236
330
18
100
AcDbEntity
  8
レイアウト枠
 48
100.0
100
AcDbPolyline
 90
        4
 70
     1
 43
0.0
 10
261.25
 20
348.9729670329672
 10
311.25
 20
348.9729670329672
 10
311.25
 20
363.9729670329672
 10
261.25
 20
363.9729670329672
  0
LWPOLYLINE
  5
237
330
18
100
AcDbEntity
  8
レイアウト枠
 48
100.0
100
AcDbPolyline
 90
        4
 70
     1
 43
0.0
 10
261.25
 20
348.9729670329672
 10
311.25
 20
348.9729670329672
 10
311.25
 20
353.9729670329672
 10
261.25
 20
353.9729670329672
  0
LWPOLYLINE
  5
238
330
18
100
AcDbEntity
  8
レイアウト枠
 48
100.0
100
AcDbPolyline
 90
        4
 70
     1
 43
0.0
 10
311.25
 20
348.9729670329672
 10
382.5
 20
348.9729670329672
 10
382.5
 20
363.9729670329672
 10
311.25
 20
363.9729670329672
  0
LWPOLYLINE
  5
239
330
18
100
AcDbEntity
  8
レイアウト枠
 48
100.0
100
AcDbPolyline
 90
        4
 70
     1
 43
0.0
 10
382.5
 20
348.9729670329672
 10
412.5
 20
348.9729670329672
 10
412.5
 20
363.9729670329672
 10
382.5
 20
363.9729670329672
  0
TEXT
  5
263
330
18
100
AcDbEntity
  8
文字
 48
100.0
100
AcDbText
 10
336.25
 20
619.2229670329672
 30
0.0
 40
2.5
  1
本特記仕様書（例）使用にあたっての注意事項 
 41
0.75
 11
336.25
 21
620.4729670329672
 31
0.0
100
AcDbText
 73
     2
  0
MTEXT
  5
283
330
18
100
AcDbEntity
  8
文字
 48
100.0
100
AcDbMText
 10
228.0
 20
474.9729670329672
 30
0.0
 40
1.75
 41
83.25
 46
0.0
 71
     1
 72
     5
  3
\pxi-3.857143,l5,r1.142857,b1.142857,sm1,t4;{\fＭＳ ゴシック|b0|i0|c128|p49;注）^I1.設計用鉛直震度 K\H0.714286x;V \H1.4x;は、設計用水平震度K\H0.714286x;H\H1.400001x; の1/2の 値とする。\P\pi-5,l5,r0,b0,s*,t5;^Iただし、免震構造の建築物における K\H0.714285x;V \H1.400002x;は、特に解析されていない場合には ①局部震度法を適用する設備
  1
の設計用水平震度 K\H0.714285x;H\H1.400001x; の1/2 の値とする。}
 73
     1
 44
1.0
  0
TEXT
  5
284
330
18
100
AcDbEntity
  8
文字
 48
100.0
100
AcDbText
 10
232.1642857142857
 20
475.5729670329672
 30
0.0
 40
1.8
  1
1階及び地下階
 41
0.7500000000000001
 72
     1
 11
236.375
 21
476.4729670329672
 31
0.0
100
AcDbText
 73
     2
  0
LWPOLYLINE
  5
285
330
18
100
AcDbEntity
  8
文字
 48
100.0
100
AcDbPolyline
 90
        4
 70
     1
 43
0.0
 10
302.1805555555547
 20
474.9729670329672
 10
309.6249999999991
 20
474.9729670329672
 10
309.6249999999991
 20
477.9729670329672
 10
302.1805555555547
 20
477.9729670329672
  0
LWPOLYLINE
  5
286
330
18
100
AcDbEntity
  8
文字
 48
100.0
100
AcDbPolyline
 90
        4
 70
     1
 43
0.0
 10
294.7361111111104
 20
474.9729670329672
 10
302.1805555555547
 20
474.9729670329672
 10
302.1805555555547
 20
477.9729670329672
 10
294.7361111111104
 20
477.9729670329672
  0
LWPOLYLINE
  5
287
330
18
100
AcDbEntity
  8
文字
 48
100.0
100
AcDbPolyline
 90
        4
 70
     1
 43
0.0
 10
287.2916666666661
 20
474.9729670329672
 10
294.7361111111104
 20
474.9729670329672
 10
294.7361111111104
 20
477.9729670329672
 10
287.2916666666661
 20
477.9729670329672
  0
LWPOLYLINE
  5
288
330
18
100
AcDbEntity
  8
文字
 48
100.0
100
AcDbPolyline
 90
        4
 70
     1
 43
0.0
 10
279.8472222222217
 20
474.9729670329672
 10
287.2916666666661
 20
474.9729670329672
 10
287.2916666666661
 20
477.9729670329672
 10
279.8472222222217
 20
477.9729670329672
  0
LWPOLYLINE
  5
289
330
18
100
AcDbEntity
  8
文字
 48
100.0
100
AcDbPolyline
 90
        4
 70
     1
 43
0.0
 10
272.4027777777774
 20
474.9729670329672
 10
279.8472222222217
 20
474.9729670329672
 10
279.8472222222217
 20
477.9729670329672
 10
272.4027777777774
 20
477.9729670329672
  0
LWPOLYLINE
  5
28A
330
18
100
AcDbEntity
  8
文字
 48
100.0
100
AcDbPolyline
 90
        4
 70
     1
 43
0.0
 10
264.958333333333
 20
474.9729670329672
 10
272.4027777777774
 20
474.9729670329672
 10
272.4027777777774
 20
477.9729670329672
 10
264.958333333333
 20
477.9729670329672
  0
LWPOLYLINE
  5
28B
330
18
100
AcDbEntity
  8
文字
 48
100.0
100
AcDbPolyline
 90
        4
 70
     1
 43
0.0
 10
257.5138888888887
 20
474.9729670329672
 10
264.958333333333
 20
474.9729670329672
 10
264.958333333333
 20
477.9729670329672
 10
257.5138888888887
 20
477.9729670329672
  0
LWPOLYLINE
  5
28C
330
18
100
AcDbEntity
  8
文字
 48
100.0
100
AcDbPolyline
 90
        4
 70
     1
 43
0.0
 10
250.0694444444443
 20
474.9729670329672
 10
257.5138888888887
 20
474.9729670329672
 10
257.5138888888887
 20
477.9729670329672
 10
250.0694444444443
 20
477.9729670329672
  0
LWPOLYLINE
  5
28D
330
18
100
AcDbEntity
  8
文字
 48
100.0
100
AcDbPolyline
 90
        4
 70
     1
 43
0.0
 10
242.625
 20
474.9729670329672
 10
250.0694444444443
 20
474.9729670329672
 10
250.0694444444443
 20
477.9729670329672
 10
242.625
 20
477.9729670329672
  0
LWPOLYLINE
  5
28E
330
18
100
AcDbEntity
  8
文字
 48
100.0
100
AcDbPolyline
 90
        4
 70
     1
 43
0.0
 10
229.625
 20
474.9729670329672
 10
242.625
 20
474.9729670329672
 10
242.625
 20
477.9729670329672
 10
229.625
 20
477.9729670329672
  0
LWPOLYLINE
  5
291
330
18
100
AcDbEntity
  8
文字
 48
100.0
100
AcDbPolyline
 90
        4
 70
     1
 43
0.0
 10
302.1805555555547
 20
477.9729670329672
 10
309.6249999999991
 20
477.9729670329672
 10
309.6249999999991
 20
480.9729670329672
 10
302.1805555555547
 20
480.9729670329672
  0
LWPOLYLINE
  5
292
330
18
100
AcDbEntity
  8
文字
 48
100.0
100
AcDbPolyline
 90
        4
 70
     1
 43
0.0
 10
294.7361111111104
 20
477.9729670329672
 10
302.1805555555547
 20
477.9729670329672
 10
302.1805555555547
 20
480.9729670329672
 10
294.7361111111104
 20
480.9729670329672
  0
LWPOLYLINE
  5
293
330
18
100
AcDbEntity
  8
文字
 48
100.0
100
AcDbPolyline
 90
        4
 70
     1
 43
0.0
 10
287.2916666666661
 20
477.9729670329672
 10
294.7361111111104
 20
477.9729670329672
 10
294.7361111111104
 20
480.9729670329672
 10
287.2916666666661
 20
480.9729670329672
  0
LWPOLYLINE
  5
294
330
18
100
AcDbEntity
  8
文字
 48
100.0
100
AcDbPolyline
 90
        4
 70
     1
 43
0.0
 10
279.8472222222217
 20
477.9729670329672
 10
287.2916666666661
 20
477.9729670329672
 10
287.2916666666661
 20
480.9729670329672
 10
279.8472222222217
 20
480.9729670329672
  0
LWPOLYLINE
  5
295
330
18
100
AcDbEntity
  8
文字
 48
100.0
100
AcDbPolyline
 90
        4
 70
     1
 43
0.0
 10
272.4027777777774
 20
477.9729670329672
 10
279.8472222222217
 20
477.9729670329672
 10
279.8472222222217
 20
480.9729670329672
 10
272.4027777777774
 20
480.9729670329672
  0
LWPOLYLINE
  5
296
330
18
100
AcDbEntity
  8
文字
 48
100.0
100
AcDbPolyline
 90
        4
 70
     1
 43
0.0
 10
264.958333333333
 20
477.9729670329672
 10
272.4027777777774
 20
477.9729670329672
 10
272.4027777777774
 20
480.9729670329672
 10
264.958333333333
 20
480.9729670329672
  0
LWPOLYLINE
  5
297
330
18
100
AcDbEntity
  8
文字
 48
100.0
100
AcDbPolyline
 90
        4
 70
     1
 43
0.0
 10
257.5138888888887
 20
477.9729670329672
 10
264.958333333333
 20
477.9729670329672
 10
264.958333333333
 20
480.9729670329672
 10
257.5138888888887
 20
480.9729670329672
  0
LWPOLYLINE
  5
298
330
18
100
AcDbEntity
  8
文字
 48
100.0
100
AcDbPolyline
 90
        4
 70
     1
 43
0.0
 10
250.0694444444443
 20
477.9729670329672
 10
257.5138888888887
 20
477.9729670329672
 10
257.5138888888887
 20
480.9729670329672
 10
250.0694444444443
 20
480.9729670329672
  0
LWPOLYLINE
  5
299
330
18
100
AcDbEntity
  8
文字
 48
100.0
100
AcDbPolyline
 90
        4
 70
     1
 43
0.0
 10
242.625
 20
477.9729670329672
 10
250.0694444444443
 20
477.9729670329672
 10
250.0694444444443
 20
480.9729670329672
 10
242.625
 20
480.9729670329672
  0
LWPOLYLINE
  5
29A
330
18
100
AcDbEntity
  8
文字
 48
100.0
100
AcDbPolyline
 90
        4
 70
     1
 43
0.0
 10
229.625
 20
477.9729670329672
 10
242.625
 20
477.9729670329672
 10
242.625
 20
480.9729670329672
 10
229.625
 20
480.9729670329672
  0
TEXT
  5
29D
330
18
100
AcDbEntity
  8
文字
 48
100.0
100
AcDbText
 10
232.1392857142857
 20
487.5729670329672
 30
0.0
 40
1.8
  1
屋上 , 塔屋
 41
0.7500000000000001
 72
     1
 11
236.125
 21
488.4729670329672
 31
0.0
100
AcDbText
 73
     2
  0
LWPOLYLINE
  5
29F
330
18
100
AcDbEntity
  8
文字
 48
100.0
100
AcDbPolyline
 90
        4
 70
     1
 43
0.0
 10
302.1805555555547
 20
489.9729670329672
 10
309.6249999999991
 20
489.9729670329672
 10
309.6249999999991
 20
492.9729670329672
 10
302.1805555555547
 20
492.9729670329672
  0
LWPOLYLINE
  5
2A0
330
18
100
AcDbEntity
  8
文字
 48
100.0
100
AcDbPolyline
 90
        4
 70
     1
 43
0.0
 10
302.1805555555547
 20
480.9729670329672
 10
309.6249999999991
 20
480.9729670329672
 10
309.6249999999991
 20
483.9729670329672
 10
302.1805555555547
 20
483.9729670329672
  0
LWPOLYLINE
  5
2A1
330
18
100
AcDbEntity
  8
文字
 48
100.0
100
AcDbPolyline
 90
        4
 70
     1
 43
0.0
 10
302.1805555555547
 20
483.9729670329672
 10
309.6249999999991
 20
483.9729670329672
 10
309.6249999999991
 20
486.9729670329672
 10
302.1805555555547
 20
486.9729670329672
  0
LWPOLYLINE
  5
2A2
330
18
100
AcDbEntity
  8
文字
 48
100.0
100
AcDbPolyline
 90
        4
 70
     1
 43
0.0
 10
302.1805555555547
 20
486.9729670329672
 10
309.6249999999991
 20
486.9729670329672
 10
309.6249999999991
 20
489.9729670329672
 10
302.1805555555547
 20
489.9729670329672
  0
LWPOLYLINE
  5
2A4
330
18
100
AcDbEntity
  8
文字
 48
100.0
100
AcDbPolyline
 90
        4
 70
     1
 43
0.0
 10
294.7361111111104
 20
489.9729670329672
 10
302.1805555555547
 20
489.9729670329672
 10
302.1805555555547
 20
492.9729670329672
 10
294.7361111111104
 20
492.9729670329672
  0
LWPOLYLINE
  5
2A5
330
18
100
AcDbEntity
  8
文字
 48
100.0
100
AcDbPolyline
 90
        4
 70
     1
 43
0.0
 10
294.7361111111104
 20
480.9729670329672
 10
302.1805555555547
 20
480.9729670329672
 10
302.1805555555547
 20
483.9729670329672
 10
294.7361111111104
 20
483.9729670329672
  0
LWPOLYLINE
  5
2A6
330
18
100
AcDbEntity
  8
文字
 48
100.0
100
AcDbPolyline
 90
        4
 70
     1
 43
0.0
 10
294.7361111111104
 20
483.9729670329672
 10
302.1805555555547
 20
483.9729670329672
 10
302.1805555555547
 20
486.9729670329672
 10
294.7361111111104
 20
486.9729670329672
  0
LWPOLYLINE
  5
2A7
330
18
100
AcDbEntity
  8
文字
 48
100.0
100
AcDbPolyline
 90
        4
 70
     1
 43
0.0
 10
294.7361111111104
 20
486.9729670329672
 10
302.1805555555547
 20
486.9729670329672
 10
302.1805555555547
 20
489.9729670329672
 10
294.7361111111104
 20
489.9729670329672
  0
LWPOLYLINE
  5
2A9
330
18
100
AcDbEntity
  8
文字
 48
100.0
100
AcDbPolyline
 90
        4
 70
     1
 43
0.0
 10
287.2916666666661
 20
489.9729670329672
 10
294.7361111111104
 20
489.9729670329672
 10
294.7361111111104
 20
492.9729670329672
 10
287.2916666666661
 20
492.9729670329672
  0
LWPOLYLINE
  5
2AA
330
18
100
AcDbEntity
  8
文字
 48
100.0
100
AcDbPolyline
 90
        4
 70
     1
 43
0.0
 10
287.2916666666661
 20
480.9729670329672
 10
294.7361111111104
 20
480.9729670329672
 10
294.7361111111104
 20
483.9729670329672
 10
287.2916666666661
 20
483.9729670329672
  0
LWPOLYLINE
  5
2AB
330
18
100
AcDbEntity
  8
文字
 48
100.0
100
AcDbPolyline
 90
        4
 70
     1
 43
0.0
 10
287.2916666666661
 20
483.9729670329672
 10
294.7361111111104
 20
483.9729670329672
 10
294.7361111111104
 20
486.9729670329672
 10
287.2916666666661
 20
486.9729670329672
  0
LWPOLYLINE
  5
2AC
330
18
100
AcDbEntity
  8
文字
 48
100.0
100
AcDbPolyline
 90
        4
 70
     1
 43
0.0
 10
287.2916666666661
 20
486.9729670329672
 10
294.7361111111104
 20
486.9729670329672
 10
294.7361111111104
 20
489.9729670329672
 10
287.2916666666661
 20
489.9729670329672
  0
LWPOLYLINE
  5
2AE
330
18
100
AcDbEntity
  8
文字
 48
100.0
100
AcDbPolyline
 90
        4
 70
     1
 43
0.0
 10
279.8472222222217
 20
489.9729670329672
 10
287.2916666666661
 20
489.9729670329672
 10
287.2916666666661
 20
492.9729670329672
 10
279.8472222222217
 20
492.9729670329672
  0
LWPOLYLINE
  5
2AF
330
18
100
AcDbEntity
  8
文字
 48
100.0
100
AcDbPolyline
 90
        4
 70
     1
 43
0.0
 10
279.8472222222217
 20
480.9729670329672
 10
287.2916666666661
 20
480.9729670329672
 10
287.2916666666661
 20
483.9729670329672
 10
279.8472222222217
 20
483.9729670329672
  0
LWPOLYLINE
  5
2B0
330
18
100
AcDbEntity
  8
文字
 48
100.0
100
AcDbPolyline
 90
        4
 70
     1
 43
0.0
 10
279.8472222222217
 20
483.9729670329672
 10
287.2916666666661
 20
483.9729670329672
 10
287.2916666666661
 20
486.9729670329672
 10
279.8472222222217
 20
486.9729670329672
  0
LWPOLYLINE
  5
2B1
330
18
100
AcDbEntity
  8
文字
 48
100.0
100
AcDbPolyline
 90
        4
 70
     1
 43
0.0
 10
279.8472222222217
 20
486.9729670329672
 10
287.2916666666661
 20
486.9729670329672
 10
287.2916666666661
 20
489.9729670329672
 10
279.8472222222217
 20
489.9729670329672
  0
LWPOLYLINE
  5
2B3
330
18
100
AcDbEntity
  8
文字
 48
100.0
100
AcDbPolyline
 90
        4
 70
     1
 43
0.0
 10
272.4027777777774
 20
489.9729670329672
 10
279.8472222222217
 20
489.9729670329672
 10
279.8472222222217
 20
492.9729670329672
 10
272.4027777777774
 20
492.9729670329672
  0
LWPOLYLINE
  5
2B4
330
18
100
AcDbEntity
  8
文字
 48
100.0
100
AcDbPolyline
 90
        4
 70
     1
 43
0.0
 10
272.4027777777774
 20
480.9729670329672
 10
279.8472222222217
 20
480.9729670329672
 10
279.8472222222217
 20
483.9729670329672
 10
272.4027777777774
 20
483.9729670329672
  0
LWPOLYLINE
  5
2B5
330
18
100
AcDbEntity
  8
文字
 48
100.0
100
AcDbPolyline
 90
        4
 70
     1
 43
0.0
 10
272.4027777777774
 20
483.9729670329672
 10
279.8472222222217
 20
483.9729670329672
 10
279.8472222222217
 20
486.9729670329672
 10
272.4027777777774
 20
486.9729670329672
  0
LWPOLYLINE
  5
2B6
330
18
100
AcDbEntity
  8
文字
 48
100.0
100
AcDbPolyline
 90
        4
 70
     1
 43
0.0
 10
272.4027777777774
 20
486.9729670329672
 10
279.8472222222217
 20
486.9729670329672
 10
279.8472222222217
 20
489.9729670329672
 10
272.4027777777774
 20
489.9729670329672
  0
LWPOLYLINE
  5
2B8
330
18
100
AcDbEntity
  8
文字
 48
100.0
100
AcDbPolyline
 90
        4
 70
     1
 43
0.0
 10
264.958333333333
 20
489.9729670329672
 10
272.4027777777774
 20
489.9729670329672
 10
272.4027777777774
 20
492.9729670329672
 10
264.958333333333
 20
492.9729670329672
  0
LWPOLYLINE
  5
2B9
330
18
100
AcDbEntity
  8
文字
 48
100.0
100
AcDbPolyline
 90
        4
 70
     1
 43
0.0
 10
264.958333333333
 20
480.9729670329672
 10
272.4027777777774
 20
480.9729670329672
 10
272.4027777777774
 20
483.9729670329672
 10
264.958333333333
 20
483.9729670329672
  0
LWPOLYLINE
  5
2BA
330
18
100
AcDbEntity
  8
文字
 48
100.0
100
AcDbPolyline
 90
        4
 70
     1
 43
0.0
 10
264.958333333333
 20
483.9729670329672
 10
272.4027777777774
 20
483.9729670329672
 10
272.4027777777774
 20
486.9729670329672
 10
264.958333333333
 20
486.9729670329672
  0
LWPOLYLINE
  5
2BB
330
18
100
AcDbEntity
  8
文字
 48
100.0
100
AcDbPolyline
 90
        4
 70
     1
 43
0.0
 10
264.958333333333
 20
486.9729670329672
 10
272.4027777777774
 20
486.9729670329672
 10
272.4027777777774
 20
489.9729670329672
 10
264.958333333333
 20
489.9729670329672
  0
TEXT
  5
2BC
330
18
100
AcDbEntity
  8
文字
 48
100.0
100
AcDbText
 10
296.8297619047624
 20
494.1729670329672
 30
0.0
 40
1.6
  1
・　B
 41
0.7500000000000001
 72
     1
 11
298.4583333333339
 21
494.9729670329672
 31
0.0
100
AcDbText
 73
     2
  0
LWPOLYLINE
  5
2BD
330
18
100
AcDbEntity
  8
文字
 48
100.0
100
AcDbPolyline
 90
        4
 70
     1
 43
0.0
 10
287.291666666667
 20
492.9729670329672
 10
309.6250000000005
 20
492.9729670329672
 10
309.6250000000005
 20
496.9729670329672
 10
287.291666666667
 20
496.9729670329672
  0
TEXT
  5
2BE
330
18
100
AcDbEntity
  8
文字
 48
100.0
100
AcDbText
 10
274.5250000000005
 20
494.1729670329672
 30
0.0
 40
1.6
  1
・　A
 41
0.7500000000000001
 72
     1
 11
276.1250000000005
 21
494.9729670329672
 31
0.0
100
AcDbText
 73
     2
  0
LWPOLYLINE
  5
2BF
330
18
100
AcDbEntity
  8
文字
 48
100.0
100
AcDbPolyline
 90
        4
 70
     1
 43
0.0
 10
264.9583333333335
 20
492.9729670329672
 10
287.291666666667
 20
492.9729670329672
 10
287.291666666667
 20
496.9729670329672
 10
264.9583333333335
 20
496.9729670329672
  0
TEXT
  5
2C0
330
18
100
AcDbEntity
  8
文字
 48
100.0
100
AcDbText
 10
252.191666666667
 20
494.1729670329672
 30
0.0
 40
1.6
  1
・　S
 41
0.7500000000000001
 72
     1
 11
253.791666666667
 21
494.9729670329672
 31
0.0
100
AcDbText
 73
     2
  0
LWPOLYLINE
  5
2C2
330
18
100
AcDbEntity
  8
文字
 48
100.0
100
AcDbPolyline
 90
        4
 70
     1
 43
0.0
 10
257.5138888888887
 20
489.9729670329672
 10
264.958333333333
 20
489.9729670329672
 10
264.958333333333
 20
492.9729670329672
 10
257.5138888888887
 20
492.9729670329672
  0
LWPOLYLINE
  5
2C3
330
18
100
AcDbEntity
  8
文字
 48
100.0
100
AcDbPolyline
 90
        4
 70
     1
 43
0.0
 10
257.5138888888887
 20
480.9729670329672
 10
264.958333333333
 20
480.9729670329672
 10
264.958333333333
 20
483.9729670329672
 10
257.5138888888887
 20
483.9729670329672
  0
LWPOLYLINE
  5
2C4
330
18
100
AcDbEntity
  8
文字
 48
100.0
100
AcDbPolyline
 90
        4
 70
     1
 43
0.0
 10
257.5138888888887
 20
483.9729670329672
 10
264.958333333333
 20
483.9729670329672
 10
264.958333333333
 20
486.9729670329672
 10
257.5138888888887
 20
486.9729670329672
  0
LWPOLYLINE
  5
2C5
330
18
100
AcDbEntity
  8
文字
 48
100.0
100
AcDbPolyline
 90
        4
 70
     1
 43
0.0
 10
257.5138888888887
 20
486.9729670329672
 10
264.958333333333
 20
486.9729670329672
 10
264.958333333333
 20
489.9729670329672
 10
257.5138888888887
 20
489.9729670329672
  0
LWPOLYLINE
  5
2C7
330
18
100
AcDbEntity
  8
文字
 48
100.0
100
AcDbPolyline
 90
        4
 70
     1
 43
0.0
 10
250.0694444444443
 20
489.9729670329672
 10
257.5138888888887
 20
489.9729670329672
 10
257.5138888888887
 20
492.9729670329672
 10
250.0694444444443
 20
492.9729670329672
  0
LWPOLYLINE
  5
2C8
330
18
100
AcDbEntity
  8
文字
 48
100.0
100
AcDbPolyline
 90
        4
 70
     1
 43
0.0
 10
250.0694444444443
 20
480.9729670329672
 10
257.5138888888887
 20
480.9729670329672
 10
257.5138888888887
 20
483.9729670329672
 10
250.0694444444443
 20
483.9729670329672
  0
LWPOLYLINE
  5
2C9
330
18
100
AcDbEntity
  8
文字
 48
100.0
100
AcDbPolyline
 90
        4
 70
     1
 43
0.0
 10
250.0694444444443
 20
483.9729670329672
 10
257.5138888888887
 20
483.9729670329672
 10
257.5138888888887
 20
486.9729670329672
 10
250.0694444444443
 20
486.9729670329672
  0
LWPOLYLINE
  5
2CA
330
18
100
AcDbEntity
  8
文字
 48
100.0
100
AcDbPolyline
 90
        4
 70
     1
 43
0.0
 10
250.0694444444443
 20
486.9729670329672
 10
257.5138888888887
 20
486.9729670329672
 10
257.5138888888887
 20
489.9729670329672
 10
250.0694444444443
 20
489.9729670329672
  0
LWPOLYLINE
  5
2CC
330
18
100
AcDbEntity
  8
文字
 48
100.0
100
AcDbPolyline
 90
        4
 70
     1
 43
0.0
 10
242.625
 20
489.9729670329672
 10
250.0694444444443
 20
489.9729670329672
 10
250.0694444444443
 20
492.9729670329672
 10
242.625
 20
492.9729670329672
  0
LWPOLYLINE
  5
2CD
330
18
100
AcDbEntity
  8
文字
 48
100.0
100
AcDbPolyline
 90
        4
 70
     1
 43
0.0
 10
242.625
 20
492.9729670329672
 10
229.625
 20
492.9729670329672
 10
229.625
 20
496.9729670329672
 10
242.625
 20
496.9729670329672
  0
LWPOLYLINE
  5
2CE
330
18
100
AcDbEntity
  8
文字
 48
100.0
100
AcDbPolyline
 90
        4
 70
     1
 43
0.0
 10
242.625
 20
492.9729670329672
 10
264.9583333333335
 20
492.9729670329672
 10
264.9583333333335
 20
496.9729670329672
 10
242.625
 20
496.9729670329672
  0
LWPOLYLINE
  5
2CF
330
18
100
AcDbEntity
  8
文字
 48
100.0
100
AcDbPolyline
 90
        4
 70
     1
 43
0.0
 10
229.625
 20
489.9729670329672
 10
242.625
 20
489.9729670329672
 10
242.625
 20
496.9729670329672
 10
229.625
 20
496.9729670329672
  0
TEXT
  5
2D0
330
18
100
AcDbEntity
  8
文字
 48
100.0
100
AcDbText
 10
233.2321428571429
 20
490.5729670329672
 30
0.0
 40
1.8
  1
支持･固定
 41
0.7500000000000001
 72
     1
 11
236.125
 21
491.4729670329672
 31
0.0
100
AcDbText
 73
     2
  0
LWPOLYLINE
  5
2D1
330
18
100
AcDbEntity
  8
文字
 48
100.0
100
AcDbPolyline
 90
        4
 70
     1
 43
0.0
 10
242.625
 20
480.9729670329672
 10
250.0694444444443
 20
480.9729670329672
 10
250.0694444444443
 20
483.9729670329672
 10
242.625
 20
483.9729670329672
  0
LWPOLYLINE
  5
2D2
330
18
100
AcDbEntity
  8
文字
 48
100.0
100
AcDbPolyline
 90
        4
 70
     1
 43
0.0
 10
229.625
 20
480.9729670329672
 10
242.625
 20
480.9729670329672
 10
242.625
 20
483.9729670329672
 10
229.625
 20
483.9729670329672
  0
TEXT
  5
2D3
330
18
100
AcDbEntity
  8
文字
 48
100.0
100
AcDbText
 10
233.2321428571429
 20
494.0729670329672
 30
0.0
 40
1.8
  1
耐震クラス
 41
0.7500000000000001
 72
     1
 11
236.125
 21
494.9729670329672
 31
0.0
100
AcDbText
 73
     2
  0
LWPOLYLINE
  5
2D4
330
18
100
AcDbEntity
  8
文字
 48
100.0
100
AcDbPolyline
 90
        4
 70
     1
 43
0.0
 10
242.625
 20
483.9729670329672
 10
250.0694444444443
 20
483.9729670329672
 10
250.0694444444443
 20
486.9729670329672
 10
242.625
 20
486.9729670329672
  0
LWPOLYLINE
  5
2D5
330
18
100
AcDbEntity
  8
文字
 48
100.0
100
AcDbPolyline
 90
        4
 70
     1
 43
0.0
 10
229.625
 20
483.9729670329672
 10
242.625
 20
483.9729670329672
 10
242.625
 20
486.9729670329672
 10
229.625
 20
486.9729670329672
  0
LWPOLYLINE
  5
2D6
330
18
100
AcDbEntity
  8
文字
 48
100.0
100
AcDbPolyline
 90
        4
 70
     1
 43
0.0
 10
242.625
 20
486.9729670329672
 10
250.0694444444443
 20
486.9729670329672
 10
250.0694444444443
 20
489.9729670329672
 10
242.625
 20
489.9729670329672
  0
LWPOLYLINE
  5
2D7
330
18
100
AcDbEntity
  8
文字
 48
100.0
100
AcDbPolyline
 90
        4
 70
     1
 43
0.0
 10
229.625
 20
486.9729670329672
 10
242.625
 20
486.9729670329672
 10
242.625
 20
489.9729670329672
 10
229.625
 20
489.9729670329672
  0
MTEXT
  5
2DC
330
18
100
AcDbEntity
  8
文字
 48
100.0
100
AcDbMText
 10
255.6249999999995
 20
518.9729670329671
 30
0.0
 40
1.8
 41
13.0
 46
11.99999999999994
 71
     1
 72
     5
  1
\pxi0,l0.592593,b0.592593;{\fＭＳ ゴシック|b0|i0|c128|p49;地下階、1階、\P上層階を除く各階}
 73
     1
 44
1.0
1001
ACAD
1000
ACAD_MTEXT_DEFINED_HEIGHT_BEGIN
1070
    46
1040
11.99999999999994
1000
ACAD_MTEXT_DEFINED_HEIGHT_END
  0
LWPOLYLINE
  5
2DD
330
18
100
AcDbEntity
  8
文字
 48
100.0
100
AcDbPolyline
 90
        4
 70
     1
 43
0.0
 10
255.625
 20
506.9729670329672
 10
268.625
 20
506.9729670329672
 10
268.625
 20
518.9729670329672
 10
255.625
 20
518.9729670329672
  0
LWPOLYLINE
  5
2DE
330
18
100
AcDbEntity
  8
文字
 48
100.0
100
AcDbPolyline
 90
        4
 70
     1
 43
0.0
 10
268.625
 20
518.9729670329672
 10
255.625
 20
518.9729670329672
 10
255.625
 20
522.9729670329672
 10
268.625
 20
522.9729670329672
  0
TEXT
  5
2DF
330
18
100
AcDbEntity
  8
文字
 48
100.0
100
AcDbText
 10
260.5821428571429
 20
520.1729670329672
 30
0.0
 40
1.6
  1
中層階
 41
0.7500000000000001
 72
     1
 11
262.125
 21
520.9729670329672
 31
0.0
100
AcDbText
 73
     2
  0
LWPOLYLINE
  5
2E0
330
18
100
AcDbEntity
  8
文字
 48
100.0
100
AcDbPolyline
 90
        4
 70
     1
 43
0.0
 10
255.625
 20
518.9729670329672
 10
242.625
 20
518.9729670329672
 10
242.625
 20
522.9729670329672
 10
255.625
 20
522.9729670329672
  0
TEXT
  5
2E1
330
18
100
AcDbEntity
  8
文字
 48
100.0
100
AcDbText
 10
245.8107142857143
 20
507.6729670329672
 30
0.0
 40
1.6
  1
上層 4 階
 41
0.7500000000000001
 72
     1
 11
249.125
 21
508.4729670329672
 31
0.0
100
AcDbText
 73
     2
  0
LWPOLYLINE
  5
2E2
330
18
100
AcDbEntity
  8
文字
 48
100.0
100
AcDbPolyline
 90
        4
 70
     1
 43
0.0
 10
242.625
 20
515.9729670329672
 10
255.625
 20
515.9729670329672
 10
255.625
 20
522.9729670329672
 10
242.625
 20
522.9729670329672
  0
TEXT
  5
2E3
330
18
100
AcDbEntity
  8
文字
 48
100.0
100
AcDbText
 10
245.8107142857143
 20
510.6729670329672
 30
0.0
 40
1.6
  1
上層 3 階
 41
0.7500000000000001
 72
     1
 11
249.125
 21
511.4729670329672
 31
0.0
100
AcDbText
 73
     2
  0
TEXT
  5
2E4
330
18
100
AcDbEntity
  8
文字
 48
100.0
100
AcDbText
 10
245.8107142857143
 20
513.6729670329672
 30
0.0
 40
1.6
  1
上層 2 階
 41
0.7500000000000001
 72
     1
 11
249.125
 21
514.4729670329672
 31
0.0
100
AcDbText
 73
     2
  0
TEXT
  5
2E5
330
18
100
AcDbEntity
  8
文字
 48
100.0
100
AcDbText
 10
247.0678571428572
 20
516.6729670329672
 30
0.0
 40
1.6
  1
最上層階
 41
0.7500000000000001
 72
     1
 11
249.125
 21
517.4729670329672
 31
0.0
100
AcDbText
 73
     2
  0
LWPOLYLINE
  5
2E6
330
18
100
AcDbEntity
  8
文字
 48
100.0
100
AcDbPolyline
 90
        4
 70
     1
 43
0.0
 10
242.625
 20
506.9729670329672
 10
255.625
 20
506.9729670329672
 10
255.625
 20
509.9729670329672
 10
242.625
 20
509.9729670329672
  0
TEXT
  5
2E7
330
18
100
AcDbEntity
  8
文字
 48
100.0
100
AcDbText
 10
248.0964285714286
 20
520.1729670329672
 30
0.0
 40
1.6
  1
階数
 41
0.7500000000000001
 72
     1
 11
249.125
 21
520.9729670329672
 31
0.0
100
AcDbText
 73
     2
  0
LWPOLYLINE
  5
2E8
330
18
100
AcDbEntity
  8
文字
 48
100.0
100
AcDbPolyline
 90
        4
 70
     1
 43
0.0
 10
242.625
 20
509.9729670329672
 10
255.625
 20
509.9729670329672
 10
255.625
 20
512.9729670329672
 10
242.625
 20
512.9729670329672
  0
LWPOLYLINE
  5
2E9
330
18
100
AcDbEntity
  8
文字
 48
100.0
100
AcDbPolyline
 90
        4
 70
     1
 43
0.0
 10
242.625
 20
512.9729670329672
 10
255.625
 20
512.9729670329672
 10
255.625
 20
515.9729670329672
 10
242.625
 20
515.9729670329672
  0
MTEXT
  5
2EA
330
18
100
AcDbEntity
  8
文字
 48
100.0
100
AcDbMText
 10
228.0
 20
503.9729670329672
 30
0.0
 40
1.75
 41
83.25
 46
0.0
 71
     1
 72
     5
  1
\pxi-1.142857,l2.285714,sm1;{\fＭＳ ゴシック|b0|i0|c128|p49;② 時刻歴応答解析の結果を用いる方法を適用する設備の設計用震度\P\pi1.142857,l2.285714;　・設計用水平震度 K\H0.714286x;H\H1.4x; は下表による。}
 73
     1
 44
1.0
  0
MTEXT
  5
2EB
330
18
100
AcDbEntity
  8
文字
 48
100.0
100
AcDbMText
 10
268.6249999999995
 20
518.9729670329671
 30
0.0
 40
1.75
 41
41.00000000000091
 46
11.99999999999994
 71
     1
 72
     5
  1
\pxi0,l0.571429,r0.571429,b0.285714;{\fＭＳ ゴシック|b0|i0|c128|p49;階の区分けは階高さの中間とする。床面設置の機器はその階の値を、天井面･天井内の機器､配管･ダクトなどはその上の階の値を使用する。\P\pb0;平屋建の屋根は、上層階とする。}
 73
     1
 44
1.0
1001
ACAD
1000
ACAD_MTEXT_DEFINED_HEIGHT_BEGIN
1070
    46
1040
11.99999999999994
1000
ACAD_MTEXT_DEFINED_HEIGHT_END
  0
LWPOLYLINE
  5
2EC
330
18
100
AcDbEntity
  8
文字
 48
100.0
100
AcDbPolyline
 90
        4
 70
     1
 43
0.0
 10
268.6249999999995
 20
506.9729670329672
 10
309.6250000000005
 20
506.9729670329672
 10
309.6250000000005
 20
518.9729670329672
 10
268.6249999999995
 20
518.9729670329672
  0
LWPOLYLINE
  5
2ED
330
18
100
AcDbEntity
  8
文字
 48
100.0
100
AcDbPolyline
 90
        4
 70
     1
 43
0.0
 10
268.625
 20
518.9729670329672
 10
309.6250000000005
 20
518.9729670329672
 10
309.6250000000005
 20
522.9729670329672
 10
268.625
 20
522.9729670329672
  0
TEXT
  5
2EE
330
18
100
AcDbEntity
  8
文字
 48
100.0
100
AcDbText
 10
285.7488095238099
 20
520.1729670329672
 30
0.0
 40
1.6
  1
備　考
 41
0.7500000000000001
 72
     1
 11
287.291666666667
 21
520.9729670329672
 31
0.0
100
AcDbText
 73
     2
  0
LWPOLYLINE
  5
2EF
330
18
100
AcDbEntity
  8
文字
 48
100.0
100
AcDbPolyline
 90
        4
 70
     1
 43
0.0
 10
242.625
 20
518.9729670329672
 10
229.625
 20
518.9729670329672
 10
229.625
 20
522.9729670329672
 10
242.625
 20
522.9729670329672
  0
LWPOLYLINE
  5
2F0
330
18
100
AcDbEntity
  8
文字
 48
100.0
100
AcDbPolyline
 90
        4
 70
     1
 43
0.0
 10
229.625
 20
515.9729670329672
 10
242.625
 20
515.9729670329672
 10
242.625
 20
522.9729670329672
 10
229.625
 20
522.9729670329672
  0
LWPOLYLINE
  5
2F1
330
18
100
AcDbEntity
  8
文字
 48
100.0
100
AcDbPolyline
 90
        4
 70
     1
 43
0.0
 10
229.625
 20
506.9729670329672
 10
242.625
 20
506.9729670329672
 10
242.625
 20
509.9729670329672
 10
229.625
 20
509.9729670329672
  0
TEXT
  5
2F2
330
18
100
AcDbEntity
  8
文字
 48
100.0
100
AcDbText
 10
235.0964285714286
 20
520.1729670329672
 30
0.0
 40
1.6
  1
階数
 41
0.7500000000000001
 72
     1
 11
236.125
 21
520.9729670329672
 31
0.0
100
AcDbText
 73
     2
  0
LWPOLYLINE
  5
2F3
330
18
100
AcDbEntity
  8
文字
 48
100.0
100
AcDbPolyline
 90
        4
 70
     1
 43
0.0
 10
229.625
 20
509.9729670329672
 10
242.625
 20
509.9729670329672
 10
242.625
 20
512.9729670329672
 10
229.625
 20
512.9729670329672
  0
LWPOLYLINE
  5
2F4
330
18
100
AcDbEntity
  8
文字
 48
100.0
100
AcDbPolyline
 90
        4
 70
     1
 43
0.0
 10
229.625
 20
512.9729670329672
 10
242.625
 20
512.9729670329672
 10
242.625
 20
515.9729670329672
 10
229.625
 20
515.9729670329672
  0
MTEXT
  5
2F5
330
18
100
AcDbEntity
  8
文字
 48
100.0
100
AcDbMText
 10
228.0
 20
530.9729670329672
 30
0.0
 40
1.75
 41
83.25
 46
0.0
 71
     1
 72
     5
  1
\pxi-3,l4,r1,b1,sm1,t3;{\fＭＳ ゴシック|b0|i0|c128|p49;注）^I1.設計用鉛直震度 K\H0.714286x;V \H1.4x;は、設計用水平震度 K\H0.714286x;H \H1.4x;の 1/2の値とする。\P\pb0; ^I2.中間階と上層階の区分は下表による。}
 73
     1
 44
1.0
  0
TEXT
  5
2F6
330
18
100
AcDbEntity
  8
文字
 48
100.0
100
AcDbText
 10
304.2634920634916
 20
531.5729670329672
 30
0.0
 40
1.8
  1
0.4
 41
0.7500000000000001
 72
     1
 11
305.9027777777774
 21
532.4729670329672
 31
0.0
100
AcDbText
 73
     2
  0
TEXT
  5
2F7
330
18
100
AcDbEntity
  8
文字
 48
100.0
100
AcDbText
 10
304.2956349206345
 20
534.5729670329672
 30
0.0
 40
1.8
  1
0.6
 41
0.7500000000000001
 72
     1
 11
305.9027777777774
 21
535.4729670329672
 31
0.0
100
AcDbText
 73
     2
  0
TEXT
  5
2F8
330
18
100
AcDbEntity
  8
文字
 48
100.0
100
AcDbText
 10
296.8511904761901
 20
534.5729670329672
 30
0.0
 40
1.8
  1
0.6
 41
0.7500000000000001
 72
     1
 11
298.458333333333
 21
535.4729670329672
 31
0.0
100
AcDbText
 73
     2
  0
TEXT
  5
2F9
330
18
100
AcDbEntity
  8
文字
 48
100.0
100
AcDbText
 10
296.8511904761901
 20
531.5729670329672
 30
0.0
 40
1.8
  1
0.6
 41
0.7500000000000001
 72
     1
 11
298.458333333333
 21
532.4729670329672
 31
0.0
100
AcDbText
 73
     2
  0
TEXT
  5
2FA
330
18
100
AcDbEntity
  8
文字
 48
100.0
100
AcDbText
 10
289.4067460317453
 20
531.5729670329672
 30
0.0
 40
1.8
  1
0.6
 41
0.7500000000000001
 72
     1
 11
291.0138888888882
 21
532.4729670329672
 31
0.0
100
AcDbText
 73
     2
  0
TEXT
  5
2FB
330
18
100
AcDbEntity
  8
文字
 48
100.0
100
AcDbText
 10
281.9623015873011
 20
531.5729670329672
 30
0.0
 40
1.8
  1
0.6
 41
0.7500000000000001
 72
     1
 11
283.5694444444439
 21
532.4729670329672
 31
0.0
100
AcDbText
 73
     2
  0
TEXT
  5
2FC
330
18
100
AcDbEntity
  8
文字
 48
100.0
100
AcDbText
 10
289.3103174603168
 20
534.5729670329672
 30
0.0
 40
1.8
  1
1.0
 41
0.7500000000000001
 72
     1
 11
291.0138888888882
 21
535.4729670329672
 31
0.0
100
AcDbText
 73
     2
  0
TEXT
  5
2FD
330
18
100
AcDbEntity
  8
文字
 48
100.0
100
AcDbText
 10
274.4214285714281
 20
531.5729670329672
 30
0.0
 40
1.8
  1
1.0
 41
0.7500000000000001
 72
     1
 11
276.1249999999995
 21
532.4729670329672
 31
0.0
100
AcDbText
 73
     2
  0
TEXT
  5
2FE
330
18
100
AcDbEntity
  8
文字
 48
100.0
100
AcDbText
 10
281.8658730158725
 20
534.5729670329672
 30
0.0
 40
1.8
  1
1.0
 41
0.7500000000000001
 72
     1
 11
283.5694444444439
 21
535.4729670329672
 31
0.0
100
AcDbText
 73
     2
  0
TEXT
  5
2FF
330
18
100
AcDbEntity
  8
文字
 48
100.0
100
AcDbText
 10
274.4214285714281
 20
534.5729670329672
 30
0.0
 40
1.8
  1
1.0
 41
0.7500000000000001
 72
     1
 11
276.1249999999995
 21
535.4729670329672
 31
0.0
100
AcDbText
 73
     2
  0
TEXT
  5
300
330
18
100
AcDbEntity
  8
文字
 48
100.0
100
AcDbText
 10
266.9769841269838
 20
531.5729670329672
 30
0.0
 40
1.8
  1
1.0
 41
0.7500000000000001
 72
     1
 11
268.6805555555552
 21
532.4729670329672
 31
0.0
100
AcDbText
 73
     2
  0
TEXT
  5
301
330
18
100
AcDbEntity
  8
文字
 48
100.0
100
AcDbText
 10
252.0880952380951
 20
531.5729670329672
 30
0.0
 40
1.8
  1
1.5
 41
0.7500000000000001
 72
     1
 11
253.7916666666665
 21
532.4729670329672
 31
0.0
100
AcDbText
 73
     2
  0
TEXT
  5
302
330
18
100
AcDbEntity
  8
文字
 48
100.0
100
AcDbText
 10
259.5325396825395
 20
531.5729670329672
 30
0.0
 40
1.8
  1
1.0
 41
0.7500000000000001
 72
     1
 11
261.2361111111109
 21
532.4729670329672
 31
0.0
100
AcDbText
 73
     2
  0
TEXT
  5
303
330
18
100
AcDbEntity
  8
文字
 48
100.0
100
AcDbText
 10
244.6436507936508
 20
531.5729670329672
 30
0.0
 40
1.8
  1
1.0
 41
0.7500000000000001
 72
     1
 11
246.3472222222222
 21
532.4729670329672
 31
0.0
100
AcDbText
 73
     2
  0
TEXT
  5
304
330
18
100
AcDbEntity
  8
文字
 48
100.0
100
AcDbText
 10
304.1992063492064
 20
537.5729670329672
 30
0.0
 40
1.8
  1
1.0
 41
0.7500000000000001
 72
     1
 11
305.9027777777778
 21
538.4729670329672
 31
0.0
100
AcDbText
 73
     2
  0
TEXT
  5
305
330
18
100
AcDbEntity
  8
文字
 48
100.0
100
AcDbText
 10
296.7547619047621
 20
537.5729670329672
 30
0.0
 40
1.8
  1
1.0
 41
0.7500000000000001
 72
     1
 11
298.4583333333335
 21
538.4729670329672
 31
0.0
100
AcDbText
 73
     2
  0
TEXT
  5
306
330
18
100
AcDbEntity
  8
文字
 48
100.0
100
AcDbText
 10
289.3103174603177
 20
537.5729670329672
 30
0.0
 40
1.8
  1
1.5
 41
0.7500000000000001
 72
     1
 11
291.0138888888891
 21
538.4729670329672
 31
0.0
100
AcDbText
 73
     2
  0
TEXT
  5
307
330
18
100
AcDbEntity
  8
文字
 48
100.0
100
AcDbText
 10
281.8658730158729
 20
537.5729670329672
 30
0.0
 40
1.8
  1
1.5
 41
0.7500000000000001
 72
     1
 11
283.5694444444443
 21
538.4729670329672
 31
0.0
100
AcDbText
 73
     2
  0
TEXT
  5
308
330
18
100
AcDbEntity
  8
文字
 48
100.0
100
AcDbText
 10
274.4214285714286
 20
537.5729670329672
 30
0.0
 40
1.8
  1
1.5
 41
0.7500000000000001
 72
     1
 11
276.125
 21
538.4729670329672
 31
0.0
100
AcDbText
 73
     2
  0
TEXT
  5
309
330
18
100
AcDbEntity
  8
文字
 48
100.0
100
AcDbText
 10
266.9769841269838
 20
534.5729670329672
 30
0.0
 40
1.8
  1
1.5
 41
0.7500000000000001
 72
     1
 11
268.6805555555552
 21
535.4729670329672
 31
0.0
100
AcDbText
 73
     2
  0
TEXT
  5
30A
330
18
100
AcDbEntity
  8
文字
 48
100.0
100
AcDbText
 10
259.5325396825395
 20
534.5729670329672
 30
0.0
 40
1.8
  1
1.5
 41
0.7500000000000001
 72
     1
 11
261.2361111111109
 21
535.4729670329672
 31
0.0
100
AcDbText
 73
     2
  0
TEXT
  5
30B
330
18
100
AcDbEntity
  8
文字
 48
100.0
100
AcDbText
 10
252.0880952380951
 20
534.5729670329672
 30
0.0
 40
1.8
  1
1.5
 41
0.7500000000000001
 72
     1
 11
253.7916666666665
 21
535.4729670329672
 31
0.0
100
AcDbText
 73
     2
  0
TEXT
  5
30C
330
18
100
AcDbEntity
  8
文字
 48
100.0
100
AcDbText
 10
244.6436507936508
 20
534.5729670329672
 30
0.0
 40
1.8
  1
1.5
 41
0.7500000000000001
 72
     1
 11
246.3472222222222
 21
535.4729670329672
 31
0.0
100
AcDbText
 73
     2
  0
TEXT
  5
30D
330
18
100
AcDbEntity
  8
文字
 48
100.0
100
AcDbText
 10
267.0734126984129
 20
537.5729670329672
 30
0.0
 40
1.8
  1
2.0
 41
0.7500000000000001
 72
     1
 11
268.6805555555557
 21
538.4729670329672
 31
0.0
100
AcDbText
 73
     2
  0
TEXT
  5
30E
330
18
100
AcDbEntity
  8
文字
 48
100.0
100
AcDbText
 10
259.6289682539681
 20
537.5729670329672
 30
0.0
 40
1.8
  1
2.0
 41
0.7500000000000001
 72
     1
 11
261.2361111111109
 21
538.4729670329672
 31
0.0
100
AcDbText
 73
     2
  0
TEXT
  5
30F
330
18
100
AcDbEntity
  8
文字
 48
100.0
100
AcDbText
 10
252.1845238095236
 20
537.5729670329672
 30
0.0
 40
1.8
  1
2.0
 41
0.7500000000000001
 72
     1
 11
253.7916666666665
 21
538.4729670329672
 31
0.0
100
AcDbText
 73
     2
  0
TEXT
  5
310
330
18
100
AcDbEntity
  8
文字
 48
100.0
100
AcDbText
 10
244.7400793650793
 20
537.5729670329672
 30
0.0
 40
1.8
  1
2.0
 41
0.7500000000000001
 72
     1
 11
246.3472222222222
 21
538.4729670329672
 31
0.0
100
AcDbText
 73
     2
  0
TEXT
  5
311
330
18
100
AcDbEntity
  8
文字
 48
100.0
100
AcDbText
 10
296.6465476190482
 20
544.0829670329672
 30
0.0
 40
1.78
  1
・　B
 41
0.7500000000000001
 72
     1
 11
298.4583333333339
 21
544.9729670329672
 31
0.0
100
AcDbText
 73
     2
  0
LWPOLYLINE
  5
313
330
18
100
AcDbEntity
  8
文字
 48
100.0
100
AcDbPolyline
 90
        4
 70
     1
 43
0.0
 10
302.1805555555557
 20
539.9729670329672
 10
309.625
 20
539.9729670329672
 10
309.625
 20
542.9729670329672
 10
302.1805555555557
 20
542.9729670329672
  0
LWPOLYLINE
  5
314
330
18
100
AcDbEntity
  8
文字
 48
100.0
100
AcDbPolyline
 90
        4
 70
     1
 43
0.0
 10
302.1805555555557
 20
530.9729670329672
 10
309.625
 20
530.9729670329672
 10
309.625
 20
533.9729670329672
 10
302.1805555555557
 20
533.9729670329672
  0
LWPOLYLINE
  5
315
330
18
100
AcDbEntity
  8
文字
 48
100.0
100
AcDbPolyline
 90
        4
 70
     1
 43
0.0
 10
302.1805555555557
 20
533.9729670329672
 10
309.625
 20
533.9729670329672
 10
309.625
 20
536.9729670329672
 10
302.1805555555557
 20
536.9729670329672
  0
LWPOLYLINE
  5
316
330
18
100
AcDbEntity
  8
文字
 48
100.0
100
AcDbPolyline
 90
        4
 70
     1
 43
0.0
 10
302.1805555555557
 20
536.9729670329672
 10
309.625
 20
536.9729670329672
 10
309.625
 20
539.9729670329672
 10
302.1805555555557
 20
539.9729670329672
  0
LWPOLYLINE
  5
318
330
18
100
AcDbEntity
  8
文字
 48
100.0
100
AcDbPolyline
 90
        4
 70
     1
 43
0.0
 10
294.7361111111113
 20
539.9729670329672
 10
302.1805555555557
 20
539.9729670329672
 10
302.1805555555557
 20
542.9729670329672
 10
294.7361111111113
 20
542.9729670329672
  0
LWPOLYLINE
  5
319
330
18
100
AcDbEntity
  8
文字
 48
100.0
100
AcDbPolyline
 90
        4
 70
     1
 43
0.0
 10
294.7361111111113
 20
530.9729670329672
 10
302.1805555555557
 20
530.9729670329672
 10
302.1805555555557
 20
533.9729670329672
 10
294.7361111111113
 20
533.9729670329672
  0
LWPOLYLINE
  5
31A
330
18
100
AcDbEntity
  8
文字
 48
100.0
100
AcDbPolyline
 90
        4
 70
     1
 43
0.0
 10
294.7361111111113
 20
533.9729670329672
 10
302.1805555555557
 20
533.9729670329672
 10
302.1805555555557
 20
536.9729670329672
 10
294.7361111111113
 20
536.9729670329672
  0
LWPOLYLINE
  5
31B
330
18
100
AcDbEntity
  8
文字
 48
100.0
100
AcDbPolyline
 90
        4
 70
     1
 43
0.0
 10
294.7361111111113
 20
536.9729670329672
 10
302.1805555555557
 20
536.9729670329672
 10
302.1805555555557
 20
539.9729670329672
 10
294.7361111111113
 20
539.9729670329672
  0
LWPOLYLINE
  5
31D
330
18
100
AcDbEntity
  8
文字
 48
100.0
100
AcDbPolyline
 90
        4
 70
     1
 43
0.0
 10
287.291666666667
 20
539.9729670329672
 10
294.7361111111113
 20
539.9729670329672
 10
294.7361111111113
 20
542.9729670329672
 10
287.291666666667
 20
542.9729670329672
  0
LWPOLYLINE
  5
31E
330
18
100
AcDbEntity
  8
文字
 48
100.0
100
AcDbPolyline
 90
        4
 70
     1
 43
0.0
 10
287.291666666667
 20
542.9729670329672
 10
309.6250000000005
 20
542.9729670329672
 10
309.6250000000005
 20
546.9729670329672
 10
287.291666666667
 20
546.9729670329672
  0
LWPOLYLINE
  5
31F
330
18
100
AcDbEntity
  8
文字
 48
100.0
100
AcDbPolyline
 90
        4
 70
     1
 43
0.0
 10
287.291666666667
 20
530.9729670329672
 10
294.7361111111113
 20
530.9729670329672
 10
294.7361111111113
 20
533.9729670329672
 10
287.291666666667
 20
533.9729670329672
  0
LWPOLYLINE
  5
320
330
18
100
AcDbEntity
  8
文字
 48
100.0
100
AcDbPolyline
 90
        4
 70
     1
 43
0.0
 10
287.291666666667
 20
533.9729670329672
 10
294.7361111111113
 20
533.9729670329672
 10
294.7361111111113
 20
536.9729670329672
 10
287.291666666667
 20
536.9729670329672
  0
LWPOLYLINE
  5
321
330
18
100
AcDbEntity
  8
文字
 48
100.0
100
AcDbPolyline
 90
        4
 70
     1
 43
0.0
 10
287.291666666667
 20
536.9729670329672
 10
294.7361111111113
 20
536.9729670329672
 10
294.7361111111113
 20
539.9729670329672
 10
287.291666666667
 20
539.9729670329672
  0
TEXT
  5
322
330
18
100
AcDbEntity
  8
文字
 48
100.0
100
AcDbText
 10
274.3450000000005
 20
544.0829670329672
 30
0.0
 40
1.78
  1
・　A
 41
0.7500000000000001
 72
     1
 11
276.1250000000005
 21
544.9729670329672
 31
0.0
100
AcDbText
 73
     2
  0
LWPOLYLINE
  5
324
330
18
100
AcDbEntity
  8
文字
 48
100.0
100
AcDbPolyline
 90
        4
 70
     1
 43
0.0
 10
279.8472222222222
 20
539.9729670329672
 10
287.2916666666665
 20
539.9729670329672
 10
287.2916666666665
 20
542.9729670329672
 10
279.8472222222222
 20
542.9729670329672
  0
LWPOLYLINE
  5
325
330
18
100
AcDbEntity
  8
文字
 48
100.0
100
AcDbPolyline
 90
        4
 70
     1
 43
0.0
 10
279.8472222222222
 20
530.9729670329672
 10
287.2916666666665
 20
530.9729670329672
 10
287.2916666666665
 20
533.9729670329672
 10
279.8472222222222
 20
533.9729670329672
  0
LWPOLYLINE
  5
326
330
18
100
AcDbEntity
  8
文字
 48
100.0
100
AcDbPolyline
 90
        4
 70
     1
 43
0.0
 10
279.8472222222222
 20
533.9729670329672
 10
287.2916666666665
 20
533.9729670329672
 10
287.2916666666665
 20
536.9729670329672
 10
279.8472222222222
 20
536.9729670329672
  0
LWPOLYLINE
  5
327
330
18
100
AcDbEntity
  8
文字
 48
100.0
100
AcDbPolyline
 90
        4
 70
     1
 43
0.0
 10
279.8472222222222
 20
536.9729670329672
 10
287.2916666666665
 20
536.9729670329672
 10
287.2916666666665
 20
539.9729670329672
 10
279.8472222222222
 20
539.9729670329672
  0
LWPOLYLINE
  5
329
330
18
100
AcDbEntity
  8
文字
 48
100.0
100
AcDbPolyline
 90
        4
 70
     1
 43
0.0
 10
272.4027777777778
 20
539.9729670329672
 10
279.8472222222222
 20
539.9729670329672
 10
279.8472222222222
 20
542.9729670329672
 10
272.4027777777778
 20
542.9729670329672
  0
LWPOLYLINE
  5
32A
330
18
100
AcDbEntity
  8
文字
 48
100.0
100
AcDbPolyline
 90
        4
 70
     1
 43
0.0
 10
272.4027777777778
 20
530.9729670329672
 10
279.8472222222222
 20
530.9729670329672
 10
279.8472222222222
 20
533.9729670329672
 10
272.4027777777778
 20
533.9729670329672
  0
LWPOLYLINE
  5
32B
330
18
100
AcDbEntity
  8
文字
 48
100.0
100
AcDbPolyline
 90
        4
 70
     1
 43
0.0
 10
272.4027777777778
 20
533.9729670329672
 10
279.8472222222222
 20
533.9729670329672
 10
279.8472222222222
 20
536.9729670329672
 10
272.4027777777778
 20
536.9729670329672
  0
LWPOLYLINE
  5
32C
330
18
100
AcDbEntity
  8
文字
 48
100.0
100
AcDbPolyline
 90
        4
 70
     1
 43
0.0
 10
272.4027777777778
 20
536.9729670329672
 10
279.8472222222222
 20
536.9729670329672
 10
279.8472222222222
 20
539.9729670329672
 10
272.4027777777778
 20
539.9729670329672
  0
LWPOLYLINE
  5
32E
330
18
100
AcDbEntity
  8
文字
 48
100.0
100
AcDbPolyline
 90
        4
 70
     1
 43
0.0
 10
264.9583333333335
 20
539.9729670329672
 10
272.4027777777778
 20
539.9729670329672
 10
272.4027777777778
 20
542.9729670329672
 10
264.9583333333335
 20
542.9729670329672
  0
LWPOLYLINE
  5
32F
330
18
100
AcDbEntity
  8
文字
 48
100.0
100
AcDbPolyline
 90
        4
 70
     1
 43
0.0
 10
264.9583333333335
 20
542.9729670329672
 10
287.291666666667
 20
542.9729670329672
 10
287.291666666667
 20
546.9729670329672
 10
264.9583333333335
 20
546.9729670329672
  0
LWPOLYLINE
  5
330
330
18
100
AcDbEntity
  8
文字
 48
100.0
100
AcDbPolyline
 90
        4
 70
     1
 43
0.0
 10
264.9583333333335
 20
530.9729670329672
 10
272.4027777777778
 20
530.9729670329672
 10
272.4027777777778
 20
533.9729670329672
 10
264.9583333333335
 20
533.9729670329672
  0
LWPOLYLINE
  5
331
330
18
100
AcDbEntity
  8
文字
 48
100.0
100
AcDbPolyline
 90
        4
 70
     1
 43
0.0
 10
264.9583333333335
 20
533.9729670329672
 10
272.4027777777778
 20
533.9729670329672
 10
272.4027777777778
 20
536.9729670329672
 10
264.9583333333335
 20
536.9729670329672
  0
LWPOLYLINE
  5
332
330
18
100
AcDbEntity
  8
文字
 48
100.0
100
AcDbPolyline
 90
        4
 70
     1
 43
0.0
 10
264.9583333333335
 20
536.9729670329672
 10
272.4027777777778
 20
536.9729670329672
 10
272.4027777777778
 20
539.9729670329672
 10
264.9583333333335
 20
539.9729670329672
  0
TEXT
  5
333
330
18
100
AcDbEntity
  8
文字
 48
100.0
100
AcDbText
 10
252.011666666667
 20
544.0829670329672
 30
0.0
 40
1.78
  1
・　S
 41
0.7500000000000001
 72
     1
 11
253.791666666667
 21
544.9729670329672
 31
0.0
100
AcDbText
 73
     2
  0
LWPOLYLINE
  5
335
330
18
100
AcDbEntity
  8
文字
 48
100.0
100
AcDbPolyline
 90
        4
 70
     1
 43
0.0
 10
257.5138888888887
 20
539.9729670329672
 10
264.958333333333
 20
539.9729670329672
 10
264.958333333333
 20
542.9729670329672
 10
257.5138888888887
 20
542.9729670329672
  0
LWPOLYLINE
  5
336
330
18
100
AcDbEntity
  8
文字
 48
100.0
100
AcDbPolyline
 90
        4
 70
     1
 43
0.0
 10
257.5138888888887
 20
530.9729670329672
 10
264.958333333333
 20
530.9729670329672
 10
264.958333333333
 20
533.9729670329672
 10
257.5138888888887
 20
533.9729670329672
  0
LWPOLYLINE
  5
337
330
18
100
AcDbEntity
  8
文字
 48
100.0
100
AcDbPolyline
 90
        4
 70
     1
 43
0.0
 10
257.5138888888887
 20
533.9729670329672
 10
264.958333333333
 20
533.9729670329672
 10
264.958333333333
 20
536.9729670329672
 10
257.5138888888887
 20
536.9729670329672
  0
LWPOLYLINE
  5
338
330
18
100
AcDbEntity
  8
文字
 48
100.0
100
AcDbPolyline
 90
        4
 70
     1
 43
0.0
 10
257.5138888888887
 20
536.9729670329672
 10
264.958333333333
 20
536.9729670329672
 10
264.958333333333
 20
539.9729670329672
 10
257.5138888888887
 20
539.9729670329672
  0
LWPOLYLINE
  5
33A
330
18
100
AcDbEntity
  8
文字
 48
100.0
100
AcDbPolyline
 90
        4
 70
     1
 43
0.0
 10
250.0694444444443
 20
539.9729670329672
 10
257.5138888888887
 20
539.9729670329672
 10
257.5138888888887
 20
542.9729670329672
 10
250.0694444444443
 20
542.9729670329672
  0
LWPOLYLINE
  5
33B
330
18
100
AcDbEntity
  8
文字
 48
100.0
100
AcDbPolyline
 90
        4
 70
     1
 43
0.0
 10
250.0694444444443
 20
530.9729670329672
 10
257.5138888888887
 20
530.9729670329672
 10
257.5138888888887
 20
533.9729670329672
 10
250.0694444444443
 20
533.9729670329672
  0
LWPOLYLINE
  5
33C
330
18
100
AcDbEntity
  8
文字
 48
100.0
100
AcDbPolyline
 90
        4
 70
     1
 43
0.0
 10
250.0694444444443
 20
533.9729670329672
 10
257.5138888888887
 20
533.9729670329672
 10
257.5138888888887
 20
536.9729670329672
 10
250.0694444444443
 20
536.9729670329672
  0
LWPOLYLINE
  5
33D
330
18
100
AcDbEntity
  8
文字
 48
100.0
100
AcDbPolyline
 90
        4
 70
     1
 43
0.0
 10
250.0694444444443
 20
536.9729670329672
 10
257.5138888888887
 20
536.9729670329672
 10
257.5138888888887
 20
539.9729670329672
 10
250.0694444444443
 20
539.9729670329672
  0
LWPOLYLINE
  5
33F
330
18
100
AcDbEntity
  8
文字
 48
100.0
100
AcDbPolyline
 90
        4
 70
     1
 43
0.0
 10
242.625
 20
539.9729670329672
 10
250.0694444444443
 20
539.9729670329672
 10
250.0694444444443
 20
542.9729670329672
 10
242.625
 20
542.9729670329672
  0
LWPOLYLINE
  5
340
330
18
100
AcDbEntity
  8
文字
 48
100.0
100
AcDbPolyline
 90
        4
 70
     1
 43
0.0
 10
242.625
 20
542.9729670329672
 10
229.625
 20
542.9729670329672
 10
229.625
 20
546.9729670329672
 10
242.625
 20
546.9729670329672
  0
LWPOLYLINE
  5
341
330
18
100
AcDbEntity
  8
文字
 48
100.0
100
AcDbPolyline
 90
        4
 70
     1
 43
0.0
 10
242.625
 20
542.9729670329672
 10
264.9583333333335
 20
542.9729670329672
 10
264.9583333333335
 20
546.9729670329672
 10
242.625
 20
546.9729670329672
  0
TEXT
  5
342
330
18
100
AcDbEntity
  8
文字
 48
100.0
100
AcDbText
 10
232.1482142857143
 20
531.6229670329672
 30
0.0
 40
1.7
  1
1階及び地下階
 41
0.7500000000000001
 72
     1
 11
236.125
 21
532.4729670329672
 31
0.0
100
AcDbText
 73
     2
  0
LWPOLYLINE
  5
343
330
18
100
AcDbEntity
  8
文字
 48
100.0
100
AcDbPolyline
 90
        4
 70
     1
 43
0.0
 10
229.625
 20
539.9729670329672
 10
242.625
 20
539.9729670329672
 10
242.625
 20
546.9729670329672
 10
229.625
 20
546.9729670329672
  0
TEXT
  5
344
330
18
100
AcDbEntity
  8
文字
 48
100.0
100
AcDbText
 10
234.4857142857143
 20
534.6229670329672
 30
0.0
 40
1.7
  1
中間階
 41
0.7500000000000001
 72
     1
 11
236.125
 21
535.4729670329672
 31
0.0
100
AcDbText
 73
     2
  0
TEXT
  5
346
330
18
100
AcDbEntity
  8
文字
 48
100.0
100
AcDbText
 10
233.3928571428571
 20
540.6229670329672
 30
0.0
 40
1.7
  1
支持･固定
 41
0.7500000000000001
 72
     1
 11
236.125
 21
541.4729670329672
 31
0.0
100
AcDbText
 73
     2
  0
LWPOLYLINE
  5
347
330
18
100
AcDbEntity
  8
文字
 48
100.0
100
AcDbPolyline
 90
        4
 70
     1
 43
0.0
 10
242.625
 20
530.9729670329672
 10
250.0694444444443
 20
530.9729670329672
 10
250.0694444444443
 20
533.9729670329672
 10
242.625
 20
533.9729670329672
  0
LWPOLYLINE
  5
348
330
18
100
AcDbEntity
  8
文字
 48
100.0
100
AcDbPolyline
 90
        4
 70
     1
 43
0.0
 10
229.625
 20
530.9729670329672
 10
242.625
 20
530.9729670329672
 10
242.625
 20
533.9729670329672
 10
229.625
 20
533.9729670329672
  0
TEXT
  5
349
330
18
100
AcDbEntity
  8
文字
 48
100.0
100
AcDbText
 10
233.2642857142857
 20
544.0829670329672
 30
0.0
 40
1.78
  1
耐震クラス
 41
0.7500000000000001
 72
     1
 11
236.125
 21
544.9729670329672
 31
0.0
100
AcDbText
 73
     2
  0
LWPOLYLINE
  5
34A
330
18
100
AcDbEntity
  8
文字
 48
100.0
100
AcDbPolyline
 90
        4
 70
     1
 43
0.0
 10
242.625
 20
533.9729670329672
 10
250.0694444444443
 20
533.9729670329672
 10
250.0694444444443
 20
536.9729670329672
 10
242.625
 20
536.9729670329672
  0
LWPOLYLINE
  5
34B
330
18
100
AcDbEntity
  8
文字
 48
100.0
100
AcDbPolyline
 90
        4
 70
     1
 43
0.0
 10
229.625
 20
533.9729670329672
 10
242.625
 20
533.9729670329672
 10
242.625
 20
536.9729670329672
 10
229.625
 20
536.9729670329672
  0
LWPOLYLINE
  5
34C
330
18
100
AcDbEntity
  8
文字
 48
100.0
100
AcDbPolyline
 90
        4
 70
     1
 43
0.0
 10
242.625
 20
536.9729670329672
 10
250.0694444444443
 20
536.9729670329672
 10
250.0694444444443
 20
539.9729670329672
 10
242.625
 20
539.9729670329672
  0
LWPOLYLINE
  5
34D
330
18
100
AcDbEntity
  8
文字
 48
100.0
100
AcDbPolyline
 90
        4
 70
     1
 43
0.0
 10
229.625
 20
536.9729670329672
 10
242.625
 20
536.9729670329672
 10
242.625
 20
539.9729670329672
 10
229.625
 20
539.9729670329672
  0
MTEXT
  5
34E
330
18
100
AcDbEntity
  8
文字
 48
100.0
100
AcDbMText
 10
228.0
 20
564.9729670329672
 30
0.0
 40
1.8
 41
83.25
 46
17.99999999999996
 71
     1
 72
     5
  3
\pxi-0.972222,l1.944444,b0.972222,sm1;{\fＭＳ ゴシック|b0|i0|c128|p49;二．設計用水平震度は以下とする。\P\pb0.486111;① 局部震度法を適用する設備の設計用水平震度 K\H0.666667x;H\H1.5x;\P\pi0.972222,l1.944444,b0;　・K\H0.666667x;H\H1.5x; ＝ Z・K\H0.666667x;S\P\H1.5x;　・地震地域係数　Z　　※ 1.0      ・（　　　　　　　）\
  1
P　・設計用標準水平震度K\H0.666666x;S\H1.500002x; は､下表による}
 73
     1
 44
1.0
1001
ACAD
1000
ACAD_MTEXT_DEFINED_HEIGHT_BEGIN
1070
    46
1040
17.99999999999996
1000
ACAD_MTEXT_DEFINED_HEIGHT_END
  0
TEXT
  5
34F
330
18
100
AcDbEntity
  8
文字
 48
100.0
100
AcDbText
 10
231.625
 20
567.7229670329672
 30
0.0
 40
1.5
  1
※昇降機設備の耐震クラスは「昇降機設備図」による。
 41
0.75
 11
231.625
 21
568.4729670329672
 31
0.0
100
AcDbText
 73
     2
  0
TEXT
  5
350
330
18
100
AcDbEntity
  8
文字
 48
100.0
100
AcDbText
 10
251.625
 20
573.6729670329672
 30
0.0
 40
1.6
  1
上記以外の一般設備
 41
0.7500000000000001
 11
251.625
 21
574.4729670329672
 31
0.0
100
AcDbText
 73
     2
  0
TEXT
  5
351
330
18
100
AcDbEntity
  8
文字
 48
100.0
100
AcDbText
 10
251.625
 20
576.6729670329672
 30
0.0
 40
1.6
  1
防災設備防防
 41
0.7500000000000001
 11
251.625
 21
577.4729670329672
 31
0.0
100
AcDbText
 73
     2
  0
TEXT
  5
352
330
18
100
AcDbEntity
  8
文字
 48
100.0
100
AcDbText
 10
251.625
 20
579.6729670329672
 30
0.0
 40
1.6
  1
－
 41
0.7500000000000001
 11
251.625
 21
580.4729670329672
 31
0.0
100
AcDbText
 73
     2
  0
TEXT
  5
353
330
18
100
AcDbEntity
  8
文字
 48
100.0
100
AcDbText
 10
231.625
 20
570.6729670329672
 30
0.0
 40
1.6
  1
・　 
 41
0.7500000000000001
 11
231.625
 21
571.4729670329672
 31
0.0
100
AcDbText
 73
     2
  0
LWPOLYLINE
  5
354
330
18
100
AcDbEntity
  8
文字
 48
100.0
100
AcDbPolyline
 90
        4
 70
     1
 43
0.0
 10
249.625
 20
569.9729670329672
 10
309.625
 20
569.9729670329672
 10
309.625
 20
572.9729670329672
 10
249.625
 20
572.9729670329672
  0
LWPOLYLINE
  5
355
330
18
100
AcDbEntity
  8
文字
 48
100.0
100
AcDbPolyline
 90
        4
 70
     1
 43
0.0
 10
229.625
 20
569.9729670329672
 10
249.625
 20
569.9729670329672
 10
249.625
 20
572.9729670329672
 10
229.625
 20
572.9729670329672
  0
TEXT
  5
356
330
18
100
AcDbEntity
  8
文字
 48
100.0
100
AcDbText
 10
231.625
 20
573.6729670329672
 30
0.0
 40
1.6
  1
・　B
 41
0.7500000000000001
 11
231.625
 21
574.4729670329672
 31
0.0
100
AcDbText
 73
     2
  0
TEXT
  5
357
330
18
100
AcDbEntity
  8
文字
 48
100.0
100
AcDbText
 10
231.625
 20
576.6729670329672
 30
0.0
 40
1.6
  1
・　A
 41
0.7500000000000001
 11
231.625
 21
577.4729670329672
 31
0.0
100
AcDbText
 73
     2
  0
TEXT
  5
358
330
18
100
AcDbEntity
  8
文字
 48
100.0
100
AcDbText
 10
272.5392857142857
 20
583.1729670329672
 30
0.0
 40
1.6
  1
適用する設備(下記は記入例）
 41
0.7500000000000001
 72
     1
 11
279.625
 21
583.9729670329672
 31
0.0
100
AcDbText
 73
     2
  0
TEXT
  5
359
330
18
100
AcDbEntity
  8
文字
 48
100.0
100
AcDbText
 10
237.0535714285714
 20
583.1729670329672
 30
0.0
 40
1.6
  1
耐震クラス
 41
0.7500000000000001
 72
     1
 11
239.625
 21
583.9729670329672
 31
0.0
100
AcDbText
 73
     2
  0
LWPOLYLINE
  5
35A
330
18
100
AcDbEntity
  8
文字
 48
100.0
100
AcDbPolyline
 90
        4
 70
     1
 43
0.0
 10
249.625
 20
572.9729670329672
 10
309.625
 20
572.9729670329672
 10
309.625
 20
575.9729670329672
 10
249.625
 20
575.9729670329672
  0
LWPOLYLINE
  5
35B
330
18
100
AcDbEntity
  8
文字
 48
100.0
100
AcDbPolyline
 90
        4
 70
     1
 43
0.0
 10
229.625
 20
572.9729670329672
 10
249.625
 20
572.9729670329672
 10
249.625
 20
575.9729670329672
 10
229.625
 20
575.9729670329672
  0
LWPOLYLINE
  5
35C
330
18
100
AcDbEntity
  8
文字
 48
100.0
100
AcDbPolyline
 90
        4
 70
     1
 43
0.0
 10
249.625
 20
575.9729670329672
 10
309.625
 20
575.9729670329672
 10
309.625
 20
578.9729670329672
 10
249.625
 20
578.9729670329672
  0
LWPOLYLINE
  5
35D
330
18
100
AcDbEntity
  8
文字
 48
100.0
100
AcDbPolyline
 90
        4
 70
     1
 43
0.0
 10
229.625
 20
575.9729670329672
 10
249.625
 20
575.9729670329672
 10
249.625
 20
578.9729670329672
 10
229.625
 20
578.9729670329672
  0
LWPOLYLINE
  5
35E
330
18
100
AcDbEntity
  8
文字
 48
100.0
100
AcDbPolyline
 90
        4
 70
     1
 43
0.0
 10
249.625
 20
578.9729670329672
 10
309.625
 20
578.9729670329672
 10
309.625
 20
581.9729670329672
 10
249.625
 20
581.9729670329672
  0
LWPOLYLINE
  5
35F
330
18
100
AcDbEntity
  8
文字
 48
100.0
100
AcDbPolyline
 90
        4
 70
     1
 43
0.0
 10
229.625
 20
578.9729670329672
 10
249.625
 20
578.9729670329672
 10
249.625
 20
581.9729670329672
 10
229.625
 20
581.9729670329672
  0
TEXT
  5
360
330
18
100
AcDbEntity
  8
文字
 48
100.0
100
AcDbText
 10
231.625
 20
579.6729670329672
 30
0.0
 40
1.6
  1
・　S
 41
0.7500000000000001
 11
231.625
 21
580.4729670329672
 31
0.0
100
AcDbText
 73
     2
  0
LWPOLYLINE
  5
361
330
18
100
AcDbEntity
  8
文字
 48
100.0
100
AcDbPolyline
 90
        4
 70
     1
 43
0.0
 10
249.625
 20
581.9729670329672
 10
309.625
 20
581.9729670329672
 10
309.625
 20
585.9729670329672
 10
249.625
 20
585.9729670329672
  0
LWPOLYLINE
  5
362
330
18
100
AcDbEntity
  8
文字
 48
100.0
100
AcDbPolyline
 90
        4
 70
     1
 43
0.0
 10
229.625
 20
581.9729670329672
 10
249.625
 20
581.9729670329672
 10
249.625
 20
585.9729670329672
 10
229.625
 20
585.9729670329672
  0
MTEXT
  5
363
330
18
100
AcDbEntity
  8
文字
 48
100.0
100
AcDbMText
 10
27.125
 20
393.4729670329671
 30
0.0
 40
1.75
 41
80.0
 46
8.999999999999945
 71
     1
 72
     5
  1
\pxi-3.428571,l4,b0.571429,t3;{\fＭＳ ゴシック|b0|i0|c128|p49;注）\H1.028571x;^I1.天井の設計用震度は床面ではなく、天井面での数値を示す。階は天井が存在する階を示す。\P\pi-4,l4,b0;^I2.備考欄に「告示外」とある部分は、告示第771号には該当しないが告示に基づく構造方法とする天井をいう。}
 73
     1
 44
1.0
1001
ACAD
1000
ACAD_MTEXT_DEFINED_HEIGHT_BEGIN
1070
    46
1040
8.999999999999945
1000
ACAD_MTEXT_DEFINED_HEIGHT_END
  0
LWPOLYLINE
  5
364
330
18
100
AcDbEntity
  8
文字
 48
100.0
100
AcDbPolyline
 90
        4
 70
     1
 43
0.0
 10
27.125
 20
381.4729670329672
 10
107.125
 20
381.4729670329672
 10
107.125
 20
393.4729670329672
 10
27.125
 20
393.4729670329672
  0
TEXT
  5
365
330
18
100
AcDbEntity
  8
文字
 48
100.0
100
AcDbText
 10
96.09642857142858
 20
409.1729670329672
 30
0.0
 40
1.6
  1
備考
 41
0.7500000000000001
 72
     1
 11
97.125
 21
409.9729670329672
 31
0.0
100
AcDbText
 73
     2
  0
LINE
  5
366
330
18
100
AcDbEntity
  8
文字
 48
100.0
100
AcDbLine
 10
77.125
 20
408.4729670329672
 30
0.0
 11
77.125
 21
411.4729670329672
 31
0.0
  0
LWPOLYLINE
  5
367
330
18
100
AcDbEntity
  8
文字
 48
100.0
100
AcDbPolyline
 90
        4
 70
     1
 43
0.0
 10
87.125
 20
393.4729670329672
 10
107.125
 20
393.4729670329672
 10
107.125
 20
396.4729670329672
 10
87.125
 20
396.4729670329672
  0
LWPOLYLINE
  5
368
330
18
100
AcDbEntity
  8
文字
 48
100.0
100
AcDbPolyline
 90
        4
 70
     1
 43
0.0
 10
87.125
 20
396.4729670329672
 10
107.125
 20
396.4729670329672
 10
107.125
 20
399.4729670329672
 10
87.125
 20
399.4729670329672
  0
LWPOLYLINE
  5
369
330
18
100
AcDbEntity
  8
文字
 48
100.0
100
AcDbPolyline
 90
        4
 70
     1
 43
0.0
 10
87.125
 20
399.4729670329672
 10
107.125
 20
399.4729670329672
 10
107.125
 20
402.4729670329672
 10
87.125
 20
402.4729670329672
  0
LWPOLYLINE
  5
36A
330
18
100
AcDbEntity
  8
文字
 48
100.0
100
AcDbPolyline
 90
        4
 70
     1
 43
0.0
 10
87.125
 20
402.4729670329672
 10
107.125
 20
402.4729670329672
 10
107.125
 20
405.4729670329672
 10
87.125
 20
405.4729670329672
  0
LWPOLYLINE
  5
36B
330
18
100
AcDbEntity
  8
文字
 48
100.0
100
AcDbPolyline
 90
        4
 70
     1
 43
0.0
 10
87.125
 20
405.4729670329672
 10
107.125
 20
405.4729670329672
 10
107.125
 20
411.4729670329672
 10
87.125
 20
411.4729670329672
  0
LWPOLYLINE
  5
36F
330
18
100
AcDbEntity
  8
文字
 48
100.0
100
AcDbPolyline
 90
        4
 70
     1
 43
0.0
 10
77.125
 20
393.4729670329672
 10
87.125
 20
393.4729670329672
 10
87.125
 20
396.4729670329672
 10
77.125
 20
396.4729670329672
  0
LWPOLYLINE
  5
370
330
18
100
AcDbEntity
  8
文字
 48
100.0
100
AcDbPolyline
 90
        4
 70
     1
 43
0.0
 10
77.125
 20
396.4729670329672
 10
87.125
 20
396.4729670329672
 10
87.125
 20
399.4729670329672
 10
77.125
 20
399.4729670329672
  0
LWPOLYLINE
  5
371
330
18
100
AcDbEntity
  8
文字
 48
100.0
100
AcDbPolyline
 90
        4
 70
     1
 43
0.0
 10
77.125
 20
399.4729670329672
 10
87.125
 20
399.4729670329672
 10
87.125
 20
402.4729670329672
 10
77.125
 20
402.4729670329672
  0
TEXT
  5
372
330
18
100
AcDbEntity
  8
文字
 48
100.0
100
AcDbText
 10
83.00621827411167
 20
403.1729670329672
 30
0.0
 40
1.6
  1
ｍｍ
 41
0.7500000000000001
 72
     2
 11
86.125
 21
403.9729670329672
 31
0.0
100
AcDbText
 73
     2
  0
LWPOLYLINE
  5
373
330
18
100
AcDbEntity
  8
文字
 48
100.0
100
AcDbPolyline
 90
        4
 70
     1
 43
0.0
 10
77.125
 20
402.4729670329672
 10
87.125
 20
402.4729670329672
 10
87.125
 20
405.4729670329672
 10
77.125
 20
405.4729670329672
  0
TEXT
  5
374
330
18
100
AcDbEntity
  8
文字
 48
100.0
100
AcDbText
 10
77.24682741116752
 20
409.1729670329672
 30
0.0
 40
1.6
  1
クリアランス
 41
0.7500000000000001
 72
     1
 11
81.925
 21
409.9729670329672
 31
0.0
100
AcDbText
 73
     2
  0
LWPOLYLINE
  5
375
330
18
100
AcDbEntity
  8
文字
 48
100.0
100
AcDbPolyline
 90
        4
 70
     1
 43
0.0
 10
77.125
 20
405.4729670329672
 10
87.125
 20
405.4729670329672
 10
87.125
 20
411.4729670329672
 10
77.125
 20
411.4729670329672
  0
TEXT
  5
376
330
18
100
AcDbEntity
  8
文字
 48
100.0
100
AcDbText
 10
72.35546812868961
 20
406.2102148685689
 30
0.0
 40
1.0
  1
V
 41
0.75
100
AcDbText
  0
TEXT
  5
377
330
18
100
AcDbEntity
  8
文字
 48
100.0
100
AcDbText
 10
71.10685672796853
 20
406.2102148685689
 30
0.0
 40
1.5
  1
K
 41
0.75
100
AcDbText
  0
TEXT
  5
378
330
18
100
AcDbEntity
  8
文字
 48
100.0
100
AcDbText
 10
68.80621827411167
 20
409.1729670329672
 30
0.0
 40
1.6
  1
鉛直震度
 41
0.7500000000000001
 72
     1
 11
71.925
 21
409.9729670329672
 31
0.0
100
AcDbText
 73
     2
  0
LWPOLYLINE
  5
379
330
18
100
AcDbEntity
  8
文字
 48
100.0
100
AcDbPolyline
 90
        4
 70
     1
 43
0.0
 10
67.125
 20
393.4729670329672
 10
77.125
 20
393.4729670329672
 10
77.125
 20
396.4729670329672
 10
67.125
 20
396.4729670329672
  0
LWPOLYLINE
  5
37A
330
18
100
AcDbEntity
  8
文字
 48
100.0
100
AcDbPolyline
 90
        4
 70
     1
 43
0.0
 10
67.125
 20
396.4729670329672
 10
77.125
 20
396.4729670329672
 10
77.125
 20
399.4729670329672
 10
67.125
 20
399.4729670329672
  0
LWPOLYLINE
  5
37B
330
18
100
AcDbEntity
  8
文字
 48
100.0
100
AcDbPolyline
 90
        4
 70
     1
 43
0.0
 10
67.125
 20
399.4729670329672
 10
77.125
 20
399.4729670329672
 10
77.125
 20
402.4729670329672
 10
67.125
 20
402.4729670329672
  0
LWPOLYLINE
  5
37C
330
18
100
AcDbEntity
  8
文字
 48
100.0
100
AcDbPolyline
 90
        4
 70
     1
 43
0.0
 10
67.125
 20
402.4729670329672
 10
77.125
 20
402.4729670329672
 10
77.125
 20
405.4729670329672
 10
67.125
 20
405.4729670329672
  0
LWPOLYLINE
  5
37D
330
18
100
AcDbEntity
  8
文字
 48
100.0
100
AcDbPolyline
 90
        4
 70
     1
 43
0.0
 10
67.125
 20
405.4729670329672
 10
77.125
 20
405.4729670329672
 10
77.125
 20
411.4729670329672
 10
67.125
 20
411.4729670329672
  0
TEXT
  5
37E
330
18
100
AcDbEntity
  8
文字
 48
100.0
100
AcDbText
 10
62.35546812868961
 20
406.2102148685689
 30
0.0
 40
1.0
  1
H
 41
0.75
100
AcDbText
  0
TEXT
  5
37F
330
18
100
AcDbEntity
  8
文字
 48
100.0
100
AcDbText
 10
61.10685672796853
 20
406.2102148685689
 30
0.0
 40
1.5
  1
K
 41
0.75
100
AcDbText
  0
TEXT
  5
380
330
18
100
AcDbEntity
  8
文字
 48
100.0
100
AcDbText
 10
58.80621827411167
 20
409.1729670329672
 30
0.0
 40
1.6
  1
水平震度
 41
0.7500000000000001
 72
     1
 11
61.925
 21
409.9729670329672
 31
0.0
100
AcDbText
 73
     2
  0
LWPOLYLINE
  5
381
330
18
100
AcDbEntity
  8
文字
 48
100.0
100
AcDbPolyline
 90
        4
 70
     1
 43
0.0
 10
57.125
 20
393.4729670329672
 10
67.125
 20
393.4729670329672
 10
67.125
 20
396.4729670329672
 10
57.125
 20
396.4729670329672
  0
LWPOLYLINE
  5
382
330
18
100
AcDbEntity
  8
文字
 48
100.0
100
AcDbPolyline
 90
        4
 70
     1
 43
0.0
 10
57.125
 20
396.4729670329672
 10
67.125
 20
396.4729670329672
 10
67.125
 20
399.4729670329672
 10
57.125
 20
399.4729670329672
  0
LWPOLYLINE
  5
383
330
18
100
AcDbEntity
  8
文字
 48
100.0
100
AcDbPolyline
 90
        4
 70
     1
 43
0.0
 10
57.125
 20
399.4729670329672
 10
67.125
 20
399.4729670329672
 10
67.125
 20
402.4729670329672
 10
57.125
 20
402.4729670329672
  0
LWPOLYLINE
  5
384
330
18
100
AcDbEntity
  8
文字
 48
100.0
100
AcDbPolyline
 90
        4
 70
     1
 43
0.0
 10
57.125
 20
402.4729670329672
 10
67.125
 20
402.4729670329672
 10
67.125
 20
405.4729670329672
 10
57.125
 20
405.4729670329672
  0
LWPOLYLINE
  5
385
330
18
100
AcDbEntity
  8
文字
 48
100.0
100
AcDbPolyline
 90
        4
 70
     1
 43
0.0
 10
57.125
 20
405.4729670329672
 10
67.125
 20
405.4729670329672
 10
67.125
 20
411.4729670329672
 10
57.125
 20
411.4729670329672
  0
TEXT
  5
386
330
18
100
AcDbEntity
  8
文字
 48
100.0
100
AcDbText
 10
54.46560913705584
 20
394.1729670329672
 30
0.0
 40
1.6
  1
階
 41
0.7500000000000001
 72
     2
 11
56.025
 21
394.9729670329672
 31
0.0
100
AcDbText
 73
     2
  0
LWPOLYLINE
  5
387
330
18
100
AcDbEntity
  8
文字
 48
100.0
100
AcDbPolyline
 90
        4
 70
     1
 43
0.0
 10
47.125
 20
393.4729670329672
 10
57.125
 20
393.4729670329672
 10
57.125
 20
396.4729670329672
 10
47.125
 20
396.4729670329672
  0
LWPOLYLINE
  5
388
330
18
100
AcDbEntity
  8
文字
 48
100.0
100
AcDbPolyline
 90
        4
 70
     1
 43
0.0
 10
27.125
 20
393.4729670329672
 10
47.125
 20
393.4729670329672
 10
47.125
 20
396.4729670329672
 10
27.125
 20
396.4729670329672
  0
TEXT
  5
389
330
18
100
AcDbEntity
  8
文字
 48
100.0
100
AcDbText
 10
54.46560913705584
 20
397.1729670329672
 30
0.0
 40
1.6
  1
階
 41
0.7500000000000001
 72
     2
 11
56.025
 21
397.9729670329672
 31
0.0
100
AcDbText
 73
     2
  0
LWPOLYLINE
  5
38A
330
18
100
AcDbEntity
  8
文字
 48
100.0
100
AcDbPolyline
 90
        4
 70
     1
 43
0.0
 10
47.125
 20
396.4729670329672
 10
57.125
 20
396.4729670329672
 10
57.125
 20
399.4729670329672
 10
47.125
 20
399.4729670329672
  0
TEXT
  5
38B
330
18
100
AcDbEntity
  8
文字
 48
100.0
100
AcDbText
 10
54.46560913705584
 20
400.1729670329672
 30
0.0
 40
1.6
  1
階
 41
0.7500000000000001
 72
     2
 11
56.025
 21
400.9729670329672
 31
0.0
100
AcDbText
 73
     2
  0
LWPOLYLINE
  5
38C
330
18
100
AcDbEntity
  8
文字
 48
100.0
100
AcDbPolyline
 90
        4
 70
     1
 43
0.0
 10
47.125
 20
399.4729670329672
 10
57.125
 20
399.4729670329672
 10
57.125
 20
402.4729670329672
 10
47.125
 20
402.4729670329672
  0
TEXT
  5
38D
330
18
100
AcDbEntity
  8
文字
 48
100.0
100
AcDbText
 10
54.46560913705584
 20
403.1729670329672
 30
0.0
 40
1.6
  1
階
 41
0.7500000000000001
 72
     2
 11
56.025
 21
403.9729670329672
 31
0.0
100
AcDbText
 73
     2
  0
LWPOLYLINE
  5
38E
330
18
100
AcDbEntity
  8
文字
 48
100.0
100
AcDbPolyline
 90
        4
 70
     1
 43
0.0
 10
47.125
 20
402.4729670329672
 10
57.125
 20
402.4729670329672
 10
57.125
 20
405.4729670329672
 10
47.125
 20
405.4729670329672
  0
TEXT
  5
38F
330
18
100
AcDbEntity
  8
文字
 48
100.0
100
AcDbText
 10
51.61071428571429
 20
407.6729670329672
 30
0.0
 40
1.6
  1
階
 41
0.7500000000000001
 72
     1
 11
52.125
 21
408.4729670329672
 31
0.0
100
AcDbText
 73
     2
  0
LWPOLYLINE
  5
390
330
18
100
AcDbEntity
  8
文字
 48
100.0
100
AcDbPolyline
 90
        4
 70
     1
 43
0.0
 10
47.125
 20
405.4729670329672
 10
57.125
 20
405.4729670329672
 10
57.125
 20
411.4729670329672
 10
47.125
 20
411.4729670329672
  0
TEXT
  5
391
330
18
100
AcDbEntity
  8
文字
 48
100.0
100
AcDbText
 10
57.20708051300327
 20
412.6742139157602
 30
0.0
 40
1.6
  1
告示第771号に基づく天井の設計用震度
 41
0.7500000000000001
 72
     1
 11
67.14993765586041
 21
413.4742139157602
 31
0.0
100
AcDbText
 73
     2
  0
LWPOLYLINE
  5
392
330
18
100
AcDbEntity
  8
文字
 48
100.0
100
AcDbPolyline
 90
        4
 70
     1
 43
0.0
 10
107.125
 20
411.4729670329672
 10
27.125
 20
411.4729670329672
 10
27.125
 20
415.4729670329672
 10
107.125
 20
415.4729670329672
  0
TEXT
  5
393
330
18
100
AcDbEntity
  8
文字
 48
100.0
100
AcDbText
 10
27.125
 20
416.4729670329672
 30
0.0
 40
1.8
  1
告示第771号による特定天井の設計用震度　検証ルート （　　　　　　　　　　　）
 41
0.7500000000000001
100
AcDbText
  0
LWPOLYLINE
  5
394
330
18
100
AcDbEntity
  8
文字
 48
100.0
100
AcDbPolyline
 90
        4
 70
     1
 43
0.0
 10
27.125
 20
396.4729670329672
 10
47.125
 20
396.4729670329672
 10
47.125
 20
399.4729670329672
 10
27.125
 20
399.4729670329672
  0
LWPOLYLINE
  5
395
330
18
100
AcDbEntity
  8
文字
 48
100.0
100
AcDbPolyline
 90
        4
 70
     1
 43
0.0
 10
27.125
 20
399.4729670329672
 10
47.125
 20
399.4729670329672
 10
47.125
 20
402.4729670329672
 10
27.125
 20
402.4729670329672
  0
LWPOLYLINE
  5
396
330
18
100
AcDbEntity
  8
文字
 48
100.0
100
AcDbPolyline
 90
        4
 70
     1
 43
0.0
 10
27.125
 20
402.4729670329672
 10
47.125
 20
402.4729670329672
 10
47.125
 20
405.4729670329672
 10
27.125
 20
405.4729670329672
  0
TEXT
  5
397
330
18
100
AcDbEntity
  8
文字
 48
100.0
100
AcDbText
 10
29.12804568527918
 20
407.6729670329672
 30
0.0
 40
1.6
  1
特定天井を有する室名
 41
0.7500000000000001
 72
     1
 11
36.925
 21
408.4729670329672
 31
0.0
100
AcDbText
 73
     2
  0
LWPOLYLINE
  5
398
330
18
100
AcDbEntity
  8
文字
 48
100.0
100
AcDbPolyline
 90
        4
 70
     1
 43
0.0
 10
27.125
 20
405.4729670329672
 10
47.125
 20
405.4729670329672
 10
47.125
 20
411.4729670329672
 10
27.125
 20
411.4729670329672
  0
TEXT
  5
3E6
330
18
100
AcDbEntity
  8
文字
 48
100.0
100
AcDbText
 10
130.375
 20
557.6729670329672
 30
0.0
 40
1.6
  1
・ 
 41
0.7500000000000001
 11
130.375
 21
558.4729670329672
 31
0.0
100
AcDbText
 73
     2
  0
TEXT
  5
3E7
330
18
100
AcDbEntity
  8
文字
 48
100.0
100
AcDbText
 10
130.375
 20
560.6729670329672
 30
0.0
 40
1.6
  1
・ 
 41
0.7500000000000001
 11
130.375
 21
561.4729670329672
 31
0.0
100
AcDbText
 73
     2
  0
TEXT
  5
3E8
330
18
100
AcDbEntity
  8
文字
 48
100.0
100
AcDbText
 10
152.2178571428572
 20
567.0729670329672
 30
0.0
 40
1.8
  1
部位
 41
0.7500000000000001
 72
     1
 11
153.375
 21
567.9729670329672
 31
0.0
100
AcDbText
 73
     2
  0
LWPOLYLINE
  5
3E9
330
18
100
AcDbEntity
  8
文字
 48
100.0
100
AcDbPolyline
 90
        4
 70
     1
 43
0.0
 10
178.375
 20
556.9729670329672
 10
208.375
 20
556.9729670329672
 10
208.375
 20
559.9729670329672
 10
178.375
 20
559.9729670329672
  0
LWPOLYLINE
  5
3EA
330
18
100
AcDbEntity
  8
文字
 48
100.0
100
AcDbPolyline
 90
        4
 70
     1
 43
0.0
 10
128.375
 20
556.9729670329672
 10
178.375
 20
556.9729670329672
 10
178.375
 20
559.9729670329672
 10
128.375
 20
559.9729670329672
  0
LWPOLYLINE
  5
3EB
330
18
100
AcDbEntity
  8
文字
 48
100.0
100
AcDbPolyline
 90
        4
 70
     1
 43
0.0
 10
178.375
 20
559.9729670329672
 10
208.375
 20
559.9729670329672
 10
208.375
 20
562.9729670329672
 10
178.375
 20
562.9729670329672
  0
LWPOLYLINE
  5
3EC
330
18
100
AcDbEntity
  8
文字
 48
100.0
100
AcDbPolyline
 90
        4
 70
     1
 43
0.0
 10
128.375
 20
559.9729670329672
 10
178.375
 20
559.9729670329672
 10
178.375
 20
562.9729670329672
 10
128.375
 20
562.9729670329672
  0
LWPOLYLINE
  5
3ED
330
18
100
AcDbEntity
  8
文字
 48
100.0
100
AcDbPolyline
 90
        4
 70
     1
 43
0.0
 10
178.375
 20
562.9729670329672
 10
208.375
 20
562.9729670329672
 10
208.375
 20
565.9729670329672
 10
178.375
 20
565.9729670329672
  0
LWPOLYLINE
  5
3EE
330
18
100
AcDbEntity
  8
文字
 48
100.0
100
AcDbPolyline
 90
        4
 70
     1
 43
0.0
 10
128.375
 20
562.9729670329672
 10
178.375
 20
562.9729670329672
 10
178.375
 20
565.9729670329672
 10
128.375
 20
565.9729670329672
  0
TEXT
  5
3EF
330
18
100
AcDbEntity
  8
文字
 48
100.0
100
AcDbText
 10
130.375
 20
563.5729670329672
 30
0.0
 40
1.8
  1
・　一般部
 41
0.7500000000000001
 11
130.375
 21
564.4729670329672
 31
0.0
100
AcDbText
 73
     2
  0
TEXT
  5
3F0
330
18
100
AcDbEntity
  8
文字
 48
100.0
100
AcDbText
 10
187.975
 20
567.0729670329672
 30
0.0
 40
1.8
  1
鉛直変位（mm）
 41
0.7500000000000001
 72
     1
 11
193.375
 21
567.9729670329672
 31
0.0
100
AcDbText
 73
     2
  0
LWPOLYLINE
  5
3F1
330
18
100
AcDbEntity
  8
文字
 48
100.0
100
AcDbPolyline
 90
        4
 70
     1
 43
0.0
 10
178.375
 20
565.9729670329672
 10
208.375
 20
565.9729670329672
 10
208.375
 20
569.9729670329672
 10
178.375
 20
569.9729670329672
  0
LWPOLYLINE
  5
3F2
330
18
100
AcDbEntity
  8
文字
 48
100.0
100
AcDbPolyline
 90
        4
 70
     1
 43
0.0
 10
128.375
 20
565.9729670329672
 10
178.375
 20
565.9729670329672
 10
178.375
 20
569.9729670329672
 10
128.375
 20
569.9729670329672
  0
MTEXT
  5
3F3
330
18
100
AcDbEntity
  8
文字
 48
100.0
100
AcDbMText
 10
126.75
 20
593.9729670329672
 30
0.0
 40
1.75
 41
83.25
 46
0.0
 71
     1
 72
     5
  3
\pxi-3.333333,l4.444444,r1.111111,b1.111111,sm1;{\fＭＳ ゴシック|b0|i0|c128|p49;注）1\fTimes New Roman|b0|i0|c0|p18;. \fＭＳ ゴシック|b0|i0|c128|p49;建築物間のクリアランスは、大地震時に躯体が衝突しないあき寸法に施工誤差を含めた設計寸法をいう。(　)内数値は、クリアランスとして最低必要な施工誤差を含まない数値とし、検査時の判定値として用いる。\P\pi1.666667,l1.1
  1
11111,b0; 2\fTimes New Roman|b0|i0|c0|p18;. \fＭＳ ゴシック|b0|i0|c128|p49;建築物間のクラランス、設計可動量は、水平方向(全方向)を示す。}
 73
     1
 44
1.0
  0
TEXT
  5
3F4
330
18
100
AcDbEntity
  8
文字
 48
100.0
100
AcDbText
 10
128.375
 20
607.9729670329672
 30
0.0
 40
1.8
  1
EXP.J部における建築物間のクリアランス及び EXP.Jの設計可動量は次による。
 41
0.75
100
AcDbText
  0
LWPOLYLINE
  5
3F5
330
18
100
AcDbEntity
  8
文字
 48
100.0
100
AcDbPolyline
 90
        4
 70
     1
 43
0.0
 10
178.375
 20
593.9729670329672
 10
208.375
 20
593.9729670329672
 10
208.375
 20
596.9729670329672
 10
178.375
 20
596.9729670329672
  0
LWPOLYLINE
  5
3F6
330
18
100
AcDbEntity
  8
文字
 48
100.0
100
AcDbPolyline
 90
        4
 70
     1
 43
0.0
 10
148.375
 20
593.9729670329672
 10
178.375
 20
593.9729670329672
 10
178.375
 20
596.9729670329672
 10
148.375
 20
596.9729670329672
  0
LWPOLYLINE
  5
3F7
330
18
100
AcDbEntity
  8
文字
 48
100.0
100
AcDbPolyline
 90
        4
 70
     1
 43
0.0
 10
128.375
 20
593.9729670329672
 10
148.375
 20
593.9729670329672
 10
148.375
 20
596.9729670329672
 10
128.375
 20
596.9729670329672
  0
LWPOLYLINE
  5
3F8
330
18
100
AcDbEntity
  8
文字
 48
100.0
100
AcDbPolyline
 90
        4
 70
     1
 43
0.0
 10
178.375
 20
596.9729670329672
 10
208.375
 20
596.9729670329672
 10
208.375
 20
599.9729670329672
 10
178.375
 20
599.9729670329672
  0
LWPOLYLINE
  5
3F9
330
18
100
AcDbEntity
  8
文字
 48
100.0
100
AcDbPolyline
 90
        4
 70
     1
 43
0.0
 10
148.375
 20
596.9729670329672
 10
178.375
 20
596.9729670329672
 10
178.375
 20
599.9729670329672
 10
148.375
 20
599.9729670329672
  0
LWPOLYLINE
  5
3FA
330
18
100
AcDbEntity
  8
文字
 48
100.0
100
AcDbPolyline
 90
        4
 70
     1
 43
0.0
 10
128.375
 20
596.9729670329672
 10
148.375
 20
596.9729670329672
 10
148.375
 20
599.9729670329672
 10
128.375
 20
599.9729670329672
  0
TEXT
  5
3FB
330
18
100
AcDbEntity
  8
文字
 48
100.0
100
AcDbText
 10
162.7810913705584
 20
600.6729670329672
 30
0.0
 40
1.6
  1
（　　　　　　　　）
 41
0.7500000000000001
 72
     2
 11
178.375
 21
601.4729670329672
 31
0.0
100
AcDbText
 73
     2
  0
LWPOLYLINE
  5
3FC
330
18
100
AcDbEntity
  8
文字
 48
100.0
100
AcDbPolyline
 90
        4
 70
     1
 43
0.0
 10
178.375
 20
599.9729670329672
 10
208.375
 20
599.9729670329672
 10
208.375
 20
602.9729670329672
 10
178.375
 20
602.9729670329672
  0
LWPOLYLINE
  5
3FD
330
18
100
AcDbEntity
  8
文字
 48
100.0
100
AcDbPolyline
 90
        4
 70
     1
 43
0.0
 10
148.375
 20
599.9729670329672
 10
178.375
 20
599.9729670329672
 10
178.375
 20
602.9729670329672
 10
148.375
 20
602.9729670329672
  0
LWPOLYLINE
  5
3FE
330
18
100
AcDbEntity
  8
文字
 48
100.0
100
AcDbPolyline
 90
        4
 70
     1
 43
0.0
 10
128.375
 20
599.9729670329672
 10
148.375
 20
599.9729670329672
 10
148.375
 20
602.9729670329672
 10
128.375
 20
602.9729670329672
  0
TEXT
  5
400
330
18
100
AcDbEntity
  8
文字
 48
100.0
100
AcDbText
 10
188.2642857142857
 20
604.0729670329672
 30
0.0
 40
1.8
  1
EXP.Jの可動量
 41
0.7500000000000001
 72
     1
 11
193.375
 21
604.9729670329672
 31
0.0
100
AcDbText
 73
     2
  0
LWPOLYLINE
  5
401
330
18
100
AcDbEntity
  8
文字
 48
100.0
100
AcDbPolyline
 90
        4
 70
     1
 43
0.0
 10
178.375
 20
602.9729670329672
 10
208.375
 20
602.9729670329672
 10
208.375
 20
606.9729670329672
 10
178.375
 20
606.9729670329672
  0
TEXT
  5
402
330
18
100
AcDbEntity
  8
文字
 48
100.0
100
AcDbText
 10
154.5107142857143
 20
604.0729670329672
 30
0.0
 40
1.8
  1
建築物間のクリアランス
 41
0.7500000000000001
 72
     1
 11
160.875
 21
604.9729670329672
 31
0.0
100
AcDbText
 73
     2
  0
LWPOLYLINE
  5
403
330
18
100
AcDbEntity
  8
文字
 48
100.0
100
AcDbPolyline
 90
        4
 70
     1
 43
0.0
 10
148.375
 20
602.9729670329672
 10
178.375
 20
602.9729670329672
 10
178.375
 20
606.9729670329672
 10
148.375
 20
606.9729670329672
  0
LWPOLYLINE
  5
404
330
18
100
AcDbEntity
  8
文字
 48
100.0
100
AcDbPolyline
 90
        4
 70
     1
 43
0.0
 10
128.375
 20
602.9729670329672
 10
148.375
 20
602.9729670329672
 10
148.375
 20
606.9729670329672
 10
128.375
 20
606.9729670329672
  0
MTEXT
  5
405
330
18
100
AcDbEntity
  8
文字
 48
100.0
100
AcDbMText
 10
25.5
 20
427.9729670329672
 30
0.0
 40
1.8
 41
83.25
 46
0.0
 71
     1
 72
     5
  1
\pxi-1.111111,l2.222222,r1.111111,b1,sm1;{\fＭＳ ゴシック|b0|i0|c128|p49;特定天井の設計用震度は以下による。　\P\pi-1.495727,l2.492878,r0.997151,b0.498576;告示771号の特定天井に該当しない場合でも、下記に記述された場合、その仕様を準用する。}
 73
     1
 44
1.0
  0
MTEXT
  5
406
330
18
100
AcDbEntity
  8
文字
 48
100.0
100
AcDbMText
 10
25.5
 20
376.9729670329672
 30
0.0
 40
1.75
 41
83.25
 46
0.0
 71
     1
 72
     5
  3
\pxi-1.714286,l2.857143,r1.142857,b1.028571,sm1;{\fＭＳ ゴシック|b0|i0|c128|p49;屋外天井の設計用風圧力は以下による。ただし、最小風圧は、±2000 Paとする。\fTimes New Roman|b0|i0|c0|p18; \P\pi-1.714286,l2.857143,r1.142857,b0.571429;\fＭＳ ゴシック|b0|i0|c128|p49;・（　　　　）Pa（ 対象部位：　　　　　　　　　）\fTimes 
  1
New Roman|b0|i0|c0|p18;  }
 73
     1
 44
1.0
  0
MTEXT
  5
407
330
18
100
AcDbEntity
  8
文字
 48
100.0
100
AcDbMText
 10
126.75
 20
577.2333468836005
 30
0.0
 40
1.8
 41
83.25
 46
0.0
 71
     1
 72
     5
  1
\pxi0,l1.111111,r1.111111,b1,sm1;{\fＭＳ ゴシック|b0|i0|c128|p49;非構造部材は、以下の構造体の鉛直変位に対して、破損や有害な残留ひずみが生じないものとする。}
 73
     1
 44
1.0
  0
MTEXT
  5
409
330
18
100
AcDbEntity
  8
文字
 48
100.0
100
AcDbMText
 10
25.5
 20
466.9729670329672
 30
0.0
 40
1.75
 41
83.25
 46
0.0
 71
     1
 72
     5
  3
\pxi0,l1.142857,r1.142857,b1.028571,sm1;{\fＭＳ ゴシック|b0|i0|c128|p49;外部に面し、積雪が想定される非構造部材は以下の積雪荷重に対して、各部材、取り付け金物が短期許容応力度内にあり破損や有害な残留ひずみが生じないものとする。\P\pi0,l1.142857,r1.142857,b0;短期許容応力度が定められていない材料については、関連基規準が定める値によるか、別途特記する。\fTimes New Roman|b0|i0|c0|p18; 
  3
\P\pb0.571429;\fＭＳ ゴシック|b0|i0|c128|p49;イ．垂直積雪量　　　　　　　　　　（      ）ｍ 　\Pロ．積雪の単位荷重　　　　　　　　（      ）N/cm/㎡  　\Pハ．積雪荷重（水平面に対して）　　（      ）N/㎡　\fTimes New Roman|b0|i0|c0|p18; \fＭＳ ゴシック|b0|i0|c128|p49;　\Pニ．多雪地域指定の有無　　・　あり　　　・　なし　\fTimes New Roman|b0|i0|c0|p18;
  1
 \fＭＳ ゴシック|b0|i0|c128|p49;　\P\pi-1.857143,l3;ホ．勾配面における積雪荷重並びに他の外力との組合せによる応力計算の扱い方は、建築基準法施行令第3章第8節による。　}
 73
     1
 44
1.0
  0
MTEXT
  5
415
330
18
100
AcDbEntity
  8
文字
 48
100.0
100
AcDbMText
 10
126.75
 20
617.2333468836005
 30
0.0
 40
1.8
 41
83.25
 46
0.0
 71
     1
 72
     5
  1
\pxi0,l0.972222,r0.972222,b0.972222,sm1;{\fＭＳ ゴシック|b0|i0|c128|p49;本項は、内外装に用いるエキスパンションジョイント（以下、EXP.Jという）に適用する。}
 73
     1
 44
1.0
  0
TEXT
  5
41B
330
18
100
AcDbEntity
  8
文字
 48
100.0
100
AcDbText
 10
136.6392857142857
 20
604.0729670329672
 30
0.0
 40
1.8
  1
階区分
 41
0.7500000000000001
 72
     1
 11
138.375
 21
604.9729670329672
 31
0.0
100
AcDbText
 73
     2
  0
MTEXT
  5
41D
330
18
100
AcDbEntity
  8
文字
 48
100.0
100
AcDbMText
 10
228.0
 20
616.9729670329672
 30
0.0
 40
1.8
 41
83.25
 46
0.0
 71
     1
 72
     5
  3
\pxi-0.972222,l1.944444,b0.972222,sm1;{\fＭＳ ゴシック|b0|i0|c128|p49;イ．耐震措置について特記無き場合は\P\pi2.916667,l0,b0;・　(一社)日本建築センター｢建築設備耐震設計・施工指針｣2014年版による。\P・　その他 ( 　　　　　)\P\pi-0.972222,l1.944444,b0.972222;ロ．設計用震度の算出方法\P\pi2.916667,l0,b0;・　局部震度法適用\P・　建築物の時刻歴応答解析の結果
  1
を用いる方法\P・　地上60mを超える建築物　　・ 免震構造　　・ 制震構造　　・ その他( 　　　)\P\pi0.972222,l0,b0.972222;ハ．耐震クラスの適用}
 73
     1
 44
1.0
  0
MTEXT
  5
439
330
18
100
AcDbEntity
  8
文字
 48
100.0
100
AcDbMText
 10
25.5
 20
605.2333468836005
 30
0.0
 40
1.8
 41
83.25
 46
0.0
 71
     1
 72
     5
  1
\pxi0,l1.111111,r1.111111,b1.111111,sm1;設計用水平震度（ K{\H0.666667x;H} ） 
 73
     1
 44
1.0
  0
MTEXT
  5
43E
330
18
100
AcDbEntity
  8
文字
 48
100.0
100
AcDbMText
 10
27.13971291514154
 20
594.4729670329672
 30
0.0
 40
1.8
 41
19.98528708485846
 46
2.999999999999998
 71
     1
 72
     5
  1
\pxi0.277778,b0.138889,sm1;屋上 ,塔屋 ,上層階
 73
     1
 44
1.0
1001
ACAD
1000
ACAD_MTEXT_DEFINED_HEIGHT_BEGIN
1070
    46
1040
2.999999999999998
1000
ACAD_MTEXT_DEFINED_HEIGHT_END
  0
MTEXT
  5
43F
330
18
100
AcDbEntity
  8
文字
 48
100.0
100
AcDbMText
 10
27.125
 20
591.4729670329672
 30
0.0
 40
1.8
 41
20.0
 46
2.999999999999998
 71
     1
 72
     5
  1
\pxi0.277778,b0.138889,sm1;中間階\P\pi0,l0,b0,s*;
 73
     1
 44
1.0
1001
ACAD
1000
ACAD_MTEXT_DEFINED_HEIGHT_BEGIN
1070
    46
1040
2.999999999999998
1000
ACAD_MTEXT_DEFINED_HEIGHT_END
  0
MTEXT
  5
440
330
18
100
AcDbEntity
  8
文字
 48
100.0
100
AcDbMText
 10
27.125
 20
588.4729670329672
 30
0.0
 40
1.8
 41
20.0
 46
2.999999999999998
 71
     1
 72
     5
  1
\pxi0.277778,b0.138889,sm1;1 階及び地下階
 73
     1
 44
1.0
1001
ACAD
1000
ACAD_MTEXT_DEFINED_HEIGHT_BEGIN
1070
    46
1040
2.999999999999998
1000
ACAD_MTEXT_DEFINED_HEIGHT_END
  0
MTEXT
  5
441
330
18
100
AcDbEntity
  8
文字
 48
100.0
100
AcDbMText
 10
25.5
 20
584.7333468836005
 30
0.0
 40
1.8
 41
83.25
 46
0.0
 71
     1
 72
     5
  1
\pxi0,l1.111111,r1.111111,b1.111111,sm1;{\fMS Gothic|b0|i0|c128|p49;上層階の定義 }
 73
     1
 44
1.0
  0
MTEXT
  5
448
330
18
100
AcDbEntity
  8
文字
 48
100.0
100
AcDbMText
 10
51.125
 20
579.9729670329672
 30
0.0
 40
1.8
 41
9.0
 46
3.999999999999998
 71
     1
 72
     5
  1
\pxb0.555556,qd;{\fMS Gothic|b0|i0|c128|p49;上層階}
 73
     1
 44
1.0
1001
ACAD
1000
ACAD_MTEXT_DEFINED_HEIGHT_BEGIN
1070
    46
1040
3.999999999999998
1000
ACAD_MTEXT_DEFINED_HEIGHT_END
  0
MTEXT
  5
44E
330
18
100
AcDbEntity
  8
文字
 48
100.0
100
AcDbMText
 10
69.125
 20
579.9729670329672
 30
0.0
 40
1.8
 41
19.0
 46
3.999999999999998
 71
     1
 72
     5
  1
\pxi2.222222,b0.555556,sm1,qc;建築物階数 
 73
     1
 44
1.0
1001
ACAD
1000
ACAD_MTEXT_DEFINED_HEIGHT_BEGIN
1070
    46
1040
3.999999999999998
1000
ACAD_MTEXT_DEFINED_HEIGHT_END
  0
MTEXT
  5
453
330
18
100
AcDbEntity
  8
文字
 48
100.0
100
AcDbMText
 10
51.125
 20
569.7229670329672
 30
0.0
 40
1.8
 41
9.0
 46
2.749999999999998
 71
     1
 72
     5
  1
\pxsm1,qd;{\fMS Gothic|b0|i0|c128|p49;上層３階}
 73
     1
 44
1.0
1001
ACAD
1000
ACAD_MTEXT_DEFINED_HEIGHT_BEGIN
1070
    46
1040
2.749999999999998
1000
ACAD_MTEXT_DEFINED_HEIGHT_END
  0
MTEXT
  5
45A
330
18
100
AcDbEntity
  8
文字
 48
100.0
100
AcDbMText
 10
51.125
 20
572.7229670329672
 30
0.0
 40
1.8
 41
9.0
 46
2.749999999999998
 71
     1
 72
     5
  1
\pxsm1,qd;{\fMS Gothic|b0|i0|c128|p49;上層２階}
 73
     1
 44
1.0
1001
ACAD
1000
ACAD_MTEXT_DEFINED_HEIGHT_BEGIN
1070
    46
1040
2.749999999999998
1000
ACAD_MTEXT_DEFINED_HEIGHT_END
  0
MTEXT
  5
468
330
18
100
AcDbEntity
  8
文字
 48
100.0
100
AcDbMText
 10
51.125
 20
575.7229670329672
 30
0.0
 40
1.8
 41
9.0
 46
2.749999999999998
 71
     1
 72
     5
  1
\pxqd;{\fMS Gothic|b0|i0|c128|p49;最上階}
 73
     1
 44
1.0
1001
ACAD
1000
ACAD_MTEXT_DEFINED_HEIGHT_BEGIN
1070
    46
1040
2.749999999999998
1000
ACAD_MTEXT_DEFINED_HEIGHT_END
  0
MTEXT
  5
46C
330
18
100
AcDbEntity
  8
文字
 48
100.0
100
AcDbMText
 10
93.125
 20
579.9729670329672
 30
0.0
 40
1.8
 41
9.0
 46
3.999999999999998
 71
     1
 72
     5
  1
\pxb0.555556,qd;上層階
 73
     1
 44
1.0
1001
ACAD
1000
ACAD_MTEXT_DEFINED_HEIGHT_BEGIN
1070
    46
1040
3.999999999999998
1000
ACAD_MTEXT_DEFINED_HEIGHT_END
  0
MTEXT
  5
46D
330
18
100
AcDbEntity
  8
文字
 48
100.0
100
AcDbMText
 10
93.125
 20
569.7229670329672
 30
0.0
 40
1.8
 41
9.0
 46
2.749999999999998
 71
     1
 72
     5
  1
\pxsm1,qd;上層６階
 73
     1
 44
1.0
1001
ACAD
1000
ACAD_MTEXT_DEFINED_HEIGHT_BEGIN
1070
    46
1040
2.749999999999998
1000
ACAD_MTEXT_DEFINED_HEIGHT_END
  0
MTEXT
  5
46E
330
18
100
AcDbEntity
  8
文字
 48
100.0
100
AcDbMText
 10
93.125
 20
572.7229670329672
 30
0.0
 40
1.8
 41
9.0
 46
2.749999999999998
 71
     1
 72
     5
  1
\pxsm1,qd;上層５階
 73
     1
 44
1.0
1001
ACAD
1000
ACAD_MTEXT_DEFINED_HEIGHT_BEGIN
1070
    46
1040
2.749999999999998
1000
ACAD_MTEXT_DEFINED_HEIGHT_END
  0
MTEXT
  5
470
330
18
100
AcDbEntity
  8
文字
 48
100.0
100
AcDbMText
 10
93.125
 20
575.7229670329672
 30
0.0
 40
1.8
 41
9.0
 46
2.749999999999998
 71
     1
 72
     5
  1
\pxsm1,qd;上層４階
 73
     1
 44
1.0
1001
ACAD
1000
ACAD_MTEXT_DEFINED_HEIGHT_BEGIN
1070
    46
1040
2.749999999999998
1000
ACAD_MTEXT_DEFINED_HEIGHT_END
  0
TEXT
  5
471
330
18
100
AcDbEntity
  8
文字
 48
100.0
100
AcDbText
 10
78.04642857142858
 20
573.5729670329672
 30
0.0
 40
1.8
  1
～
 41
0.7500000000000001
 72
     1
 11
78.625
 21
574.4729670329672
 31
0.0
100
AcDbText
 73
     2
  0
TEXT
  5
472
330
18
100
AcDbEntity
  8
文字
 48
100.0
100
AcDbText
 10
78.04642857142858
 20
570.5729670329672
 30
0.0
 40
1.8
  1
～
 41
0.7500000000000001
 72
     1
 11
78.625
 21
571.4729670329672
 31
0.0
100
AcDbText
 73
     2
  0
TEXT
  5
473
330
18
100
AcDbEntity
  8
文字
 48
100.0
100
AcDbText
 10
77.46785714285714
 20
567.5729670329672
 30
0.0
 40
1.8
  1
以上
 41
0.7500000000000001
 72
     1
 11
78.625
 21
568.4729670329672
 31
0.0
100
AcDbText
 73
     2
  0
TEXT
  5
474
330
18
100
AcDbEntity
  8
文字
 48
100.0
100
AcDbText
 10
36.11071428571429
 20
573.6729670329672
 30
0.0
 40
1.6
  1
～
 41
0.7500000000000001
 72
     1
 11
36.625
 21
574.4729670329672
 31
0.0
100
AcDbText
 73
     2
  0
TEXT
  5
475
330
18
100
AcDbEntity
  8
文字
 48
100.0
100
AcDbText
 10
36.11071428571429
 20
570.6729670329672
 30
0.0
 40
1.6
  1
～
 41
0.7500000000000001
 72
     1
 11
36.625
 21
571.4729670329672
 31
0.0
100
AcDbText
 73
     2
  0
TEXT
  5
476
330
18
100
AcDbEntity
  8
文字
 48
100.0
100
AcDbText
 10
36.11071428571429
 20
567.6729670329672
 30
0.0
 40
1.6
  1
～
 41
0.7500000000000001
 72
     1
 11
36.625
 21
568.4729670329672
 31
0.0
100
AcDbText
 73
     2
  0
TEXT
  5
477
330
18
100
AcDbEntity
  8
文字
 48
100.0
100
AcDbText
 10
74.24285714285715
 20
573.5729670329672
 30
0.0
 40
1.8
  1
13
 41
0.7500000000000001
 72
     1
 11
75.625
 21
574.4729670329672
 31
0.0
100
AcDbText
 73
     2
  0
TEXT
  5
478
330
18
100
AcDbEntity
  8
文字
 48
100.0
100
AcDbText
 10
74.24285714285715
 20
570.5729670329672
 30
0.0
 40
1.8
  1
18
 41
0.7500000000000001
 72
     1
 11
75.625
 21
571.4729670329672
 31
0.0
100
AcDbText
 73
     2
  0
TEXT
  5
479
330
18
100
AcDbEntity
  8
文字
 48
100.0
100
AcDbText
 10
74.33928571428571
 20
567.5729670329672
 30
0.0
 40
1.8
  1
20
 41
0.7500000000000001
 72
     1
 11
75.625
 21
568.4729670329672
 31
0.0
100
AcDbText
 73
     2
  0
TEXT
  5
47A
330
18
100
AcDbEntity
  8
文字
 48
100.0
100
AcDbText
 10
80.24285714285715
 20
573.5729670329672
 30
0.0
 40
1.8
  1
17
 41
0.7500000000000001
 72
     1
 11
81.625
 21
574.4729670329672
 31
0.0
100
AcDbText
 73
     2
  0
TEXT
  5
47B
330
18
100
AcDbEntity
  8
文字
 48
100.0
100
AcDbText
 10
80.275
 20
570.5729670329672
 30
0.0
 40
1.8
  1
19
 41
0.7500000000000001
 72
     1
 11
81.625
 21
571.4729670329672
 31
0.0
100
AcDbText
 73
     2
  0
TEXT
  5
47C
330
18
100
AcDbEntity
  8
文字
 48
100.0
100
AcDbText
 10
32.98214285714285
 20
573.5729670329672
 30
0.0
 40
1.8
  1
2
 41
0.7500000000000001
 72
     1
 11
33.625
 21
574.4729670329672
 31
0.0
100
AcDbText
 73
     2
  0
TEXT
  5
47D
330
18
100
AcDbEntity
  8
文字
 48
100.0
100
AcDbText
 10
32.98214285714285
 20
570.5729670329672
 30
0.0
 40
1.8
  1
7
 41
0.7500000000000001
 72
     1
 11
33.625
 21
571.4729670329672
 31
0.0
100
AcDbText
 73
     2
  0
TEXT
  5
47E
330
18
100
AcDbEntity
  8
文字
 48
100.0
100
AcDbText
 10
32.24285714285714
 20
567.5729670329672
 30
0.0
 40
1.8
  1
10
 41
0.7500000000000001
 72
     1
 11
33.625
 21
568.4729670329672
 31
0.0
100
AcDbText
 73
     2
  0
TEXT
  5
47F
330
18
100
AcDbEntity
  8
文字
 48
100.0
100
AcDbText
 10
38.95
 20
573.5729670329672
 30
0.0
 40
1.8
  1
6
 41
0.7500000000000001
 72
     1
 11
39.625
 21
574.4729670329672
 31
0.0
100
AcDbText
 73
     2
  0
TEXT
  5
480
330
18
100
AcDbEntity
  8
文字
 48
100.0
100
AcDbText
 10
39.01428571428571
 20
570.5729670329672
 30
0.0
 40
1.8
  1
9
 41
0.7500000000000001
 72
     1
 11
39.625
 21
571.4729670329672
 31
0.0
100
AcDbText
 73
     2
  0
TEXT
  5
481
330
18
100
AcDbEntity
  8
文字
 48
100.0
100
AcDbText
 10
38.24285714285714
 20
567.5729670329672
 30
0.0
 40
1.8
  1
12
 41
0.7500000000000001
 72
     1
 11
39.625
 21
568.4729670329672
 31
0.0
100
AcDbText
 73
     2
  0
MTEXT
  5
484
330
18
100
AcDbEntity
  8
文字
 48
100.0
100
AcDbMText
 10
25.5
 20
538.9729670329672
 30
0.0
 40
1.8
 41
83.25
 46
0.0
 71
     1
 72
     5
  3
\pxi0,l1.111111,r1.111111,b1,sm1;{\fＭＳ ゴシック|b0|i0|c128|p49;外部に面する非構造部材は作用する風圧力に対して各部材、取り付け金物が、短期許容応力度内にあり、破損や有害な残留ひずみが生じないものとする。\fTimes New Roman|b0|i0|c0|p18; \P\pi0,l1.111111,r0.555556,b0;\fＭＳ ゴシック|b0|i0|c128|p49;短期許容応力度が定められていない材料については、関連基規準が定める値に
  3
よるか、別途特記する。\fTimes New Roman|b0|i0|c0|p18; \P\pi-1.888889,l3,r1.111111,b0.555556;\fＭＳ ゴシック|b0|i0|c128|p49;イ．設計用風圧は、風洞実験を行っている場合は実験結果による。風洞実験をしていない場合は、\fTimes New Roman|b0|i0|c0|p18; \fＭＳ ゴシック|b0|i0|c128|p49;建築基準法施行令第82条の4及び告示(平12建告第1454号・同第1458号)により算
  3
定する。\P\pi3.75,l1.111111,t37.777778;V\fTimes New Roman|b0|i0|c0|p18;\H0.666667x;0\fＭＳ ゴシック|b0|i0|c128|p49;\H1.5x;　　（     ）m/s^I（告示第1454号）\fTimes New Roman|b0|i0|c0|p18; \P\pb0;\fＭＳ ゴシック|b0|i0|c128|p49;非構造部材設計用風速の割増し\fTimes New Roman|b0|i0|c0|p18; \P\pi
  3
5.694445,l1.111111;\fＭＳ ゴシック|b0|i0|c128|p49;・なし　※再現期間 100 年相当　・再現期間 200 年相当　・（　　　　　）\fTimes New Roman|b0|i0|c0|p18; \P\pi4.861111,l0,r0,s*,tz;\fＭＳ ゴシック|b0|i0|c128|p49;V　　 （     ）m/s \P\pi-2.194444,l9,r1.111111,sm1;注）^IV\fTimes New Roman|b0|i0|c0|p18;\
  3
H0.666666x;0 \fＭＳ ゴシック|b0|i0|c128|p49;\H1.500001x;を再現期間50年相当として、日本建築学会「建築物荷重指針・同解説\fTimes New Roman|b0|i0|c0|p18; \fＭＳ ゴシック|b0|i0|c128|p49;1993年版」第6章による再現期間概算係数を乗じたものを V とする。\fTimes New Roman|b0|i0|c0|p18; \fＭＳ ゴシック|b0|i0|c128|p49;告示第1458号による速度圧算定式にお
  3
いて、V\fTimes New Roman|b0|i0|c0|p18;\H0.666667x;0\H1.5x; \fＭＳ ゴシック|b0|i0|c128|p49;をこれに読み替える。\fTimes New Roman|b0|i0|c0|p18; \P\pi-0.694445,l5.555556;\fＭＳ ゴシック|b0|i0|c128|p49;地表面粗度区分　・ Ⅰ　　・　Ⅱ　　・　Ⅲ　　・　Ⅳ　　(告示第1454号）\fTimes New Roman|b0|i0|c0|p18; \P\pi0,
  3
l6.805556;\fＭＳ ゴシック|b0|i0|c128|p49;注）非構造部材設計用は、Ⅳの地区でもⅢとする。\fTimes New Roman|b0|i0|c0|p18; \P\pi-0.694445,l5.555556;\fＭＳ ゴシック|b0|i0|c128|p49;風力係数　　※告示による　　・ 風洞実験による　　・（　　　　　　　　）　\fTimes New Roman|b0|i0|c0|p18; \P\pi0,l1.111111,b0.555556;\fＭＳ ゴシック|b0|i
  3
0|c128|p49;ロ．屋外の非構造部材の設計用風圧力の最小値\fTimes New Roman|b0|i0|c0|p18; \P\pi-0.694445,l5.555556;\fＭＳ ゴシック|b0|i0|c128|p49;※±1,200 Pa　　　・（                ）\fTimes New Roman|b0|i0|c0|p18; \fＭＳ ゴシック|b0|i0|c128|p49;　　\P\pi-2.638889,l5.555556,b0;なお、以下に示す箇所には屋内におい
  1
ても上記設計用風圧力を適用する。\P(適用箇所：　　　　　　　　　)\P\pi0,l1.111111,b0.555556;\fTimes New Roman|b0|i0|c0|p18; \fＭＳ ゴシック|b0|i0|c128|p49;ハ．他の外力との組合せによる応力計算の扱い方は、建築基準法施行令第3章第8節による。\fTimes New Roman|b0|i0|c0|p18;  }
 73
     1
 44
1.0
  0
LINE
  5
666
330
18
100
AcDbEntity
  8
文字
 48
100.0
100
AcDbLine
 10
7.500000000000028
 20
538.9729670329672
 30
0.0
 11
108.75
 21
538.9729670329672
 31
0.0
  0
MTEXT
  5
687
330
18
100
AcDbEntity
  8
文字
 48
100.0
100
AcDbMText
 10
250.5694444444443
 20
542.7229670329672
 30
0.0
 40
1.7
 41
6.444444444444343
 46
2.749999999999998
 71
     1
 72
     5
  1
\pxsm1,qd;{\T0.9;\W0.6;水槽類}
 73
     1
 44
1.0
1001
ACAD
1000
ACAD_MTEXT_DEFINED_HEIGHT_BEGIN
1070
    46
1040
2.749999999999998
1000
ACAD_MTEXT_DEFINED_HEIGHT_END
  0
MTEXT
  5
688
330
18
100
AcDbEntity
  8
文字
 48
100.0
100
AcDbMText
 10
259.0138888888887
 20
542.7229670329672
 30
0.0
 40
1.7
 41
4.444444444444343
 46
2.749999999999998
 71
     1
 72
     5
  1
\pxsm1,qd;{\T0.9;\W0.6;固定}
 73
     1
 44
1.0
1001
ACAD
1000
ACAD_MTEXT_DEFINED_HEIGHT_BEGIN
1070
    46
1040
2.749999999999998
1000
ACAD_MTEXT_DEFINED_HEIGHT_END
  0
MTEXT
  5
695
330
18
100
AcDbEntity
  8
文字
 48
100.0
100
AcDbMText
 10
272.9027777777774
 20
542.7229670329672
 30
0.0
 40
1.7
 41
6.444444444444343
 46
2.749999999999998
 71
     1
 72
     5
  1
\pxsm1,qd;{\T0.9;\W0.6;水槽類}
 73
     1
 44
1.0
1001
ACAD
1000
ACAD_MTEXT_DEFINED_HEIGHT_BEGIN
1070
    46
1040
2.749999999999998
1000
ACAD_MTEXT_DEFINED_HEIGHT_END
  0
MTEXT
  5
696
330
18
100
AcDbEntity
  8
文字
 48
100.0
100
AcDbMText
 10
281.3472222222217
 20
542.7229670329672
 30
0.0
 40
1.7
 41
4.444444444444343
 46
2.749999999999998
 71
     1
 72
     5
  1
\pxsm1,qd;{\T0.9;\W0.6;固定}
 73
     1
 44
1.0
1001
ACAD
1000
ACAD_MTEXT_DEFINED_HEIGHT_BEGIN
1070
    46
1040
2.749999999999998
1000
ACAD_MTEXT_DEFINED_HEIGHT_END
  0
MTEXT
  5
698
330
18
100
AcDbEntity
  8
文字
 48
100.0
100
AcDbMText
 10
295.2361111111109
 20
542.7229670329672
 30
0.0
 40
1.7
 41
6.444444444444343
 46
2.749999999999998
 71
     1
 72
     5
  1
\pxsm1,qd;{\T0.9;\W0.6;水槽類}
 73
     1
 44
1.0
1001
ACAD
1000
ACAD_MTEXT_DEFINED_HEIGHT_BEGIN
1070
    46
1040
2.749999999999998
1000
ACAD_MTEXT_DEFINED_HEIGHT_END
  0
MTEXT
  5
699
330
18
100
AcDbEntity
  8
文字
 48
100.0
100
AcDbMText
 10
303.6805555555552
 20
542.7229670329672
 30
0.0
 40
1.7
 41
4.444444444444343
 46
2.749999999999998
 71
     1
 72
     5
  1
\pxsm1,qd;{\T0.9;\W0.6;固定}
 73
     1
 44
1.0
1001
ACAD
1000
ACAD_MTEXT_DEFINED_HEIGHT_BEGIN
1070
    46
1040
2.749999999999998
1000
ACAD_MTEXT_DEFINED_HEIGHT_END
  0
MTEXT
  5
69A
330
18
100
AcDbEntity
  8
文字
 48
100.0
100
AcDbMText
 10
229.875
 20
539.7229670329672
 30
0.0
 40
1.7
 41
12.5
 46
2.749999999999998
 71
     1
 72
     5
  1
\pxsm1,qd;{\T0.9;\W0.6;屋上,塔屋,上層階}
 73
     1
 44
1.0
1001
ACAD
1000
ACAD_MTEXT_DEFINED_HEIGHT_BEGIN
1070
    46
1040
2.749999999999998
1000
ACAD_MTEXT_DEFINED_HEIGHT_END
  0
MTEXT
  5
69D
330
18
100
AcDbEntity
  8
文字
 48
100.0
100
AcDbMText
 10
243.125
 20
492.7229670329672
 30
0.0
 40
1.7
 41
6.444444444444343
 46
2.749999999999998
 71
     1
 72
     5
  1
\pxsm1,qd;{\T0.9;\W0.6;防振支持}
 73
     1
 44
1.0
1001
ACAD
1000
ACAD_MTEXT_DEFINED_HEIGHT_BEGIN
1070
    46
1040
2.749999999999998
1000
ACAD_MTEXT_DEFINED_HEIGHT_END
  0
MTEXT
  5
69E
330
18
100
AcDbEntity
  8
文字
 48
100.0
100
AcDbMText
 10
250.5694444444443
 20
492.7229670329672
 30
0.0
 40
1.7
 41
6.444444444444343
 46
2.749999999999998
 71
     1
 72
     5
  1
\pxsm1,qd;{\T0.9;\W0.6;水槽類}
 73
     1
 44
1.0
1001
ACAD
1000
ACAD_MTEXT_DEFINED_HEIGHT_BEGIN
1070
    46
1040
2.749999999999998
1000
ACAD_MTEXT_DEFINED_HEIGHT_END
  0
MTEXT
  5
69F
330
18
100
AcDbEntity
  8
文字
 48
100.0
100
AcDbMText
 10
259.0138888888887
 20
492.7229670329672
 30
0.0
 40
1.7
 41
4.444444444444343
 46
2.749999999999998
 71
     1
 72
     5
  1
\pxsm1,qd;{\T0.9;\W0.6;固定}
 73
     1
 44
1.0
1001
ACAD
1000
ACAD_MTEXT_DEFINED_HEIGHT_BEGIN
1070
    46
1040
2.749999999999998
1000
ACAD_MTEXT_DEFINED_HEIGHT_END
  0
MTEXT
  5
6A1
330
18
100
AcDbEntity
  8
文字
 48
100.0
100
AcDbMText
 10
272.9027777777774
 20
492.7229670329672
 30
0.0
 40
1.7
 41
6.444444444444343
 46
2.749999999999998
 71
     1
 72
     5
  1
\pxsm1,qd;{\T0.9;\W0.6;水槽類}
 73
     1
 44
1.0
1001
ACAD
1000
ACAD_MTEXT_DEFINED_HEIGHT_BEGIN
1070
    46
1040
2.749999999999998
1000
ACAD_MTEXT_DEFINED_HEIGHT_END
  0
MTEXT
  5
6A2
330
18
100
AcDbEntity
  8
文字
 48
100.0
100
AcDbMText
 10
281.3472222222217
 20
492.7229670329672
 30
0.0
 40
1.7
 41
4.444444444444343
 46
2.749999999999998
 71
     1
 72
     5
  1
\pxsm1,qd;{\T0.9;\W0.6;固定}
 73
     1
 44
1.0
1001
ACAD
1000
ACAD_MTEXT_DEFINED_HEIGHT_BEGIN
1070
    46
1040
2.749999999999998
1000
ACAD_MTEXT_DEFINED_HEIGHT_END
  0
MTEXT
  5
6A4
330
18
100
AcDbEntity
  8
文字
 48
100.0
100
AcDbMText
 10
295.2361111111109
 20
492.7229670329672
 30
0.0
 40
1.7
 41
6.444444444444343
 46
2.749999999999998
 71
     1
 72
     5
  1
\pxsm1,qd;{\T0.9;\W0.6;水槽類}
 73
     1
 44
1.0
1001
ACAD
1000
ACAD_MTEXT_DEFINED_HEIGHT_BEGIN
1070
    46
1040
2.749999999999998
1000
ACAD_MTEXT_DEFINED_HEIGHT_END
  0
MTEXT
  5
6A5
330
18
100
AcDbEntity
  8
文字
 48
100.0
100
AcDbMText
 10
303.6805555555552
 20
492.7229670329672
 30
0.0
 40
1.7
 41
4.444444444444343
 46
2.749999999999998
 71
     1
 72
     5
  1
\pxsm1,qd;{\T0.9;\W0.6;固定}
 73
     1
 44
1.0
1001
ACAD
1000
ACAD_MTEXT_DEFINED_HEIGHT_BEGIN
1070
    46
1040
2.749999999999998
1000
ACAD_MTEXT_DEFINED_HEIGHT_END
  0
TEXT
  5
6BA
330
18
100
AcDbEntity
  8
文字
 48
100.0
100
AcDbText
 10
235.6107142857143
 20
516.6729670329672
 30
0.0
 40
1.6
  1
～
 41
0.7500000000000001
 72
     1
 11
236.125
 21
517.4729670329672
 31
0.0
100
AcDbText
 73
     2
  0
TEXT
  5
6BB
330
18
100
AcDbEntity
  8
文字
 48
100.0
100
AcDbText
 10
235.6107142857143
 20
513.6729670329672
 30
0.0
 40
1.6
  1
～
 41
0.7500000000000001
 72
     1
 11
236.125
 21
514.4729670329672
 31
0.0
100
AcDbText
 73
     2
  0
TEXT
  5
6BC
330
18
100
AcDbEntity
  8
文字
 48
100.0
100
AcDbText
 10
235.6107142857143
 20
510.6729670329672
 30
0.0
 40
1.6
  1
～
 41
0.7500000000000001
 72
     1
 11
236.125
 21
511.4729670329672
 31
0.0
100
AcDbText
 73
     2
  0
TEXT
  5
6BD
330
18
100
AcDbEntity
  8
文字
 48
100.0
100
AcDbText
 10
232.4821428571429
 20
516.5729670329672
 30
0.0
 40
1.8
  1
2
 41
0.7500000000000001
 72
     1
 11
233.125
 21
517.4729670329672
 31
0.0
100
AcDbText
 73
     2
  0
TEXT
  5
6BE
330
18
100
AcDbEntity
  8
文字
 48
100.0
100
AcDbText
 10
232.4821428571429
 20
513.5729670329672
 30
0.0
 40
1.8
  1
7
 41
0.7500000000000001
 72
     1
 11
233.125
 21
514.4729670329672
 31
0.0
100
AcDbText
 73
     2
  0
TEXT
  5
6BF
330
18
100
AcDbEntity
  8
文字
 48
100.0
100
AcDbText
 10
231.7428571428571
 20
510.5729670329672
 30
0.0
 40
1.8
  1
10
 41
0.7500000000000001
 72
     1
 11
233.125
 21
511.4729670329672
 31
0.0
100
AcDbText
 73
     2
  0
TEXT
  5
6C0
330
18
100
AcDbEntity
  8
文字
 48
100.0
100
AcDbText
 10
239.45
 20
516.5729670329672
 30
0.0
 40
1.8
  1
6
 41
0.7500000000000001
 72
     1
 11
240.125
 21
517.4729670329672
 31
0.0
100
AcDbText
 73
     2
  0
TEXT
  5
6C1
330
18
100
AcDbEntity
  8
文字
 48
100.0
100
AcDbText
 10
239.5142857142857
 20
513.5729670329672
 30
0.0
 40
1.8
  1
9
 41
0.7500000000000001
 72
     1
 11
240.125
 21
514.4729670329672
 31
0.0
100
AcDbText
 73
     2
  0
TEXT
  5
6C2
330
18
100
AcDbEntity
  8
文字
 48
100.0
100
AcDbText
 10
238.7428571428571
 20
510.5729670329672
 30
0.0
 40
1.8
  1
12
 41
0.7500000000000001
 72
     1
 11
240.125
 21
511.4729670329672
 31
0.0
100
AcDbText
 73
     2
  0
TEXT
  5
6C3
330
18
100
AcDbEntity
  8
文字
 48
100.0
100
AcDbText
 10
230.6107142857143
 20
516.6729670329672
 30
0.0
 40
1.6
  1
・
 41
0.7500000000000001
 72
     1
 11
231.125
 21
517.4729670329672
 31
0.0
100
AcDbText
 73
     2
  0
TEXT
  5
6C4
330
18
100
AcDbEntity
  8
文字
 48
100.0
100
AcDbText
 10
230.6107142857143
 20
513.6729670329672
 30
0.0
 40
1.6
  1
・
 41
0.7500000000000001
 72
     1
 11
231.125
 21
514.4729670329672
 31
0.0
100
AcDbText
 73
     2
  0
TEXT
  5
6C5
330
18
100
AcDbEntity
  8
文字
 48
100.0
100
AcDbText
 10
230.6107142857143
 20
510.6729670329672
 30
0.0
 40
1.6
  1
・
 41
0.7500000000000001
 72
     1
 11
231.125
 21
511.4729670329672
 31
0.0
100
AcDbText
 73
     2
  0
TEXT
  5
6C6
330
18
100
AcDbEntity
  8
文字
 48
100.0
100
AcDbText
 10
231.7428571428571
 20
507.5729670329672
 30
0.0
 40
1.8
  1
13
 41
0.7500000000000001
 72
     1
 11
233.125
 21
508.4729670329672
 31
0.0
100
AcDbText
 73
     2
  0
TEXT
  5
6C7
330
18
100
AcDbEntity
  8
文字
 48
100.0
100
AcDbText
 10
230.6107142857143
 20
507.6729670329672
 30
0.0
 40
1.6
  1
・
 41
0.7500000000000001
 72
     1
 11
231.125
 21
508.4729670329672
 31
0.0
100
AcDbText
 73
     2
  0
TEXT
  5
6C8
330
18
100
AcDbEntity
  8
文字
 48
100.0
100
AcDbText
 10
235.0964285714286
 20
507.6729670329672
 30
0.0
 40
1.6
  1
以上
 41
0.7500000000000001
 72
     1
 11
236.125
 21
508.4729670329672
 31
0.0
100
AcDbText
 73
     2
  0
TEXT
  5
6CA
330
18
100
AcDbEntity
  8
文字
 48
100.0
100
AcDbText
 10
240.5464285714286
 20
484.5729670329672
 30
0.0
 40
1.8
  1
階
 41
0.7500000000000001
 72
     1
 11
241.125
 21
485.4729670329672
 31
0.0
100
AcDbText
 73
     2
  0
TEXT
  5
6CB
330
18
100
AcDbEntity
  8
文字
 48
100.0
100
AcDbText
 10
233.5464285714286
 20
484.5729670329672
 30
0.0
 40
1.8
  1
階
 41
0.7500000000000001
 72
     1
 11
234.125
 21
485.4729670329672
 31
0.0
100
AcDbText
 73
     2
  0
TEXT
  5
6CD
330
18
100
AcDbEntity
  8
文字
 48
100.0
100
AcDbText
 10
235.6107142857143
 20
484.6729670329672
 30
0.0
 40
1.6
  1
～
 41
0.7500000000000001
 72
     1
 11
236.125
 21
485.4729670329672
 31
0.0
100
AcDbText
 73
     2
  0
TEXT
  5
6CE
330
18
100
AcDbEntity
  8
文字
 48
100.0
100
AcDbText
 10
240.5464285714286
 20
481.5729670329672
 30
0.0
 40
1.8
  1
階
 41
0.7500000000000001
 72
     1
 11
241.125
 21
482.4729670329672
 31
0.0
100
AcDbText
 73
     2
  0
TEXT
  5
6CF
330
18
100
AcDbEntity
  8
文字
 48
100.0
100
AcDbText
 10
233.5464285714286
 20
481.5729670329672
 30
0.0
 40
1.8
  1
階
 41
0.7500000000000001
 72
     1
 11
234.125
 21
482.4729670329672
 31
0.0
100
AcDbText
 73
     2
  0
TEXT
  5
6D0
330
18
100
AcDbEntity
  8
文字
 48
100.0
100
AcDbText
 10
235.6107142857143
 20
481.6729670329672
 30
0.0
 40
1.6
  1
～
 41
0.7500000000000001
 72
     1
 11
236.125
 21
482.4729670329672
 31
0.0
100
AcDbText
 73
     2
  0
TEXT
  5
6D1
330
18
100
AcDbEntity
  8
文字
 48
100.0
100
AcDbText
 10
240.5464285714286
 20
478.5729670329672
 30
0.0
 40
1.8
  1
階
 41
0.7500000000000001
 72
     1
 11
241.125
 21
479.4729670329672
 31
0.0
100
AcDbText
 73
     2
  0
TEXT
  5
6D2
330
18
100
AcDbEntity
  8
文字
 48
100.0
100
AcDbText
 10
233.5464285714286
 20
478.5729670329672
 30
0.0
 40
1.8
  1
階
 41
0.7500000000000001
 72
     1
 11
234.125
 21
479.4729670329672
 31
0.0
100
AcDbText
 73
     2
  0
TEXT
  5
6D3
330
18
100
AcDbEntity
  8
文字
 48
100.0
100
AcDbText
 10
235.6107142857143
 20
478.6729670329672
 30
0.0
 40
1.6
  1
～
 41
0.7500000000000001
 72
     1
 11
236.125
 21
479.4729670329672
 31
0.0
100
AcDbText
 73
     2
  0
MTEXT
  5
6D4
330
18
100
AcDbEntity
  8
文字
 48
100.0
100
AcDbMText
 10
311.25
 20
353.4729670329672
 30
0.0
 40
3.0
 41
63.36618882544497
 46
4.999999999999991
 71
     1
 72
     5
  1
\pxi0.333333,l0.333333,r0.666667,sm1,qd;{\W0.6;\fＭＳ ゴシック|b0|i0|c128|p49;非構造部材等の構造安全性に関わる特記仕様書（例）}
 73
     1
 44
1.0
1001
ACAD
1000
ACAD_MTEXT_DEFINED_HEIGHT_BEGIN
1070
    46
1040
4.999999999999991
1000
ACAD_MTEXT_DEFINED_HEIGHT_END
  0
TEXT
  5
6D7
330
18
100
AcDbEntity
  8
文字
 48
100.0
100
AcDbText
 10
63.04631979695431
 20
592.0729670329672
 30
0.0
 40
1.8
  1
※2.0 ・(     )
 41
0.7500000000000001
 72
     1
 11
69.625
 21
592.9729670329672
 31
0.0
100
AcDbText
 73
     2
  0
TEXT
  5
6D8
330
18
100
AcDbEntity
  8
文字
 48
100.0
100
AcDbText
 10
78.04631979695432
 20
592.0729670329672
 30
0.0
 40
1.8
  1
※1.0 ・(     )
 41
0.7500000000000001
 72
     1
 11
84.625
 21
592.9729670329672
 31
0.0
100
AcDbText
 73
     2
  0
TEXT
  5
6DB
330
18
100
AcDbEntity
  8
文字
 48
100.0
100
AcDbText
 10
93.04631979695432
 20
586.0729670329672
 30
0.0
 40
1.8
  1
※0.4 ・(     )
 41
0.7500000000000001
 72
     1
 11
99.625
 21
586.9729670329672
 31
0.0
100
AcDbText
 73
     2
  0
TEXT
  5
6DC
330
18
100
AcDbEntity
  8
文字
 48
100.0
100
AcDbText
 10
78.04631979695432
 20
589.0729670329672
 30
0.0
 40
1.8
  1
※0.6 ・(     )
 41
0.7500000000000001
 72
     1
 11
84.625
 21
589.9729670329672
 31
0.0
100
AcDbText
 73
     2
  0
TEXT
  5
6DD
330
18
100
AcDbEntity
  8
文字
 48
100.0
100
AcDbText
 10
78.04631979695432
 20
586.0729670329672
 30
0.0
 40
1.8
  1
※0.4 ・(     )
 41
0.7500000000000001
 72
     1
 11
84.625
 21
586.9729670329672
 31
0.0
100
AcDbText
 73
     2
  0
TEXT
  5
6DE
330
18
100
AcDbEntity
  8
文字
 48
100.0
100
AcDbText
 10
63.04631979695431
 20
589.0729670329672
 30
0.0
 40
1.8
  1
※1.5 ・(     )
 41
0.7500000000000001
 72
     1
 11
69.625
 21
589.9729670329672
 31
0.0
100
AcDbText
 73
     2
  0
TEXT
  5
6DF
330
18
100
AcDbEntity
  8
文字
 48
100.0
100
AcDbText
 10
63.04631979695431
 20
586.0729670329672
 30
0.0
 40
1.8
  1
※1.0 ・(     )
 41
0.7500000000000001
 72
     1
 11
69.625
 21
586.9729670329672
 31
0.0
100
AcDbText
 73
     2
  0
TEXT
  5
6E3
330
18
100
AcDbEntity
  8
文字
 48
100.0
100
AcDbText
 10
135.7964285714286
 20
597.5729670329672
 30
0.0
 40
1.8
  1
階
 41
0.7500000000000001
 72
     1
 11
136.375
 21
598.4729670329672
 31
0.0
100
AcDbText
 73
     2
  0
TEXT
  5
6E4
330
18
100
AcDbEntity
  8
文字
 48
100.0
100
AcDbText
 10
137.8607142857143
 20
597.6729670329672
 30
0.0
 40
1.6
  1
～
 41
0.7500000000000001
 72
     1
 11
138.375
 21
598.4729670329672
 31
0.0
100
AcDbText
 73
     2
  0
TEXT
  5
6E6
330
18
100
AcDbEntity
  8
文字
 48
100.0
100
AcDbText
 10
145.7964285714286
 20
597.5729670329672
 30
0.0
 40
1.8
  1
階
 41
0.7500000000000001
 72
     1
 11
146.375
 21
598.4729670329672
 31
0.0
100
AcDbText
 73
     2
  0
TEXT
  5
6E7
330
18
100
AcDbEntity
  8
文字
 48
100.0
100
AcDbText
 10
135.7964285714286
 20
600.5729670329672
 30
0.0
 40
1.8
  1
階
 41
0.7500000000000001
 72
     1
 11
136.375
 21
601.4729670329672
 31
0.0
100
AcDbText
 73
     2
  0
TEXT
  5
6E8
330
18
100
AcDbEntity
  8
文字
 48
100.0
100
AcDbText
 10
137.8607142857143
 20
600.6729670329672
 30
0.0
 40
1.6
  1
～
 41
0.7500000000000001
 72
     1
 11
138.375
 21
601.4729670329672
 31
0.0
100
AcDbText
 73
     2
  0
TEXT
  5
6E9
330
18
100
AcDbEntity
  8
文字
 48
100.0
100
AcDbText
 10
145.7964285714286
 20
600.5729670329672
 30
0.0
 40
1.8
  1
階
 41
0.7500000000000001
 72
     1
 11
146.375
 21
601.4729670329672
 31
0.0
100
AcDbText
 73
     2
  0
TEXT
  5
6EA
330
18
100
AcDbEntity
  8
文字
 48
100.0
100
AcDbText
 10
135.7964285714286
 20
594.5729670329672
 30
0.0
 40
1.8
  1
階
 41
0.7500000000000001
 72
     1
 11
136.375
 21
595.4729670329672
 31
0.0
100
AcDbText
 73
     2
  0
TEXT
  5
6EB
330
18
100
AcDbEntity
  8
文字
 48
100.0
100
AcDbText
 10
137.8607142857143
 20
594.6729670329672
 30
0.0
 40
1.6
  1
～
 41
0.7500000000000001
 72
     1
 11
138.375
 21
595.4729670329672
 31
0.0
100
AcDbText
 73
     2
  0
TEXT
  5
6EC
330
18
100
AcDbEntity
  8
文字
 48
100.0
100
AcDbText
 10
145.7964285714286
 20
594.5729670329672
 30
0.0
 40
1.8
  1
階
 41
0.7500000000000001
 72
     1
 11
146.375
 21
595.4729670329672
 31
0.0
100
AcDbText
 73
     2
  0
MTEXT
  5
708
330
18
100
AcDbEntity
  8
文字
 48
100.0
100
AcDbMText
 10
27.125
 20
579.9729670329672
 30
0.0
 40
1.8
 41
19.0
 46
3.999999999999998
 71
     1
 72
     5
  1
\pxi2.222222,b0.555556,sm1,qc;建築物階数 
 73
     1
 44
1.0
1001
ACAD
1000
ACAD_MTEXT_DEFINED_HEIGHT_BEGIN
1070
    46
1040
3.999999999999998
1000
ACAD_MTEXT_DEFINED_HEIGHT_END
  0
TEXT
  5
709
330
18
100
AcDbEntity
  8
文字
 48
100.0
100
AcDbText
 10
83.00621827411167
 20
400.1729670329672
 30
0.0
 40
1.6
  1
ｍｍ
 41
0.7500000000000001
 72
     2
 11
86.125
 21
400.9729670329672
 31
0.0
100
AcDbText
 73
     2
  0
TEXT
  5
70A
330
18
100
AcDbEntity
  8
文字
 48
100.0
100
AcDbText
 10
83.00621827411167
 20
397.1729670329672
 30
0.0
 40
1.6
  1
ｍｍ
 41
0.7500000000000001
 72
     2
 11
86.125
 21
397.9729670329672
 31
0.0
100
AcDbText
 73
     2
  0
TEXT
  5
70B
330
18
100
AcDbEntity
  8
文字
 48
100.0
100
AcDbText
 10
83.00621827411167
 20
394.1729670329672
 30
0.0
 40
1.6
  1
ｍｍ
 41
0.7500000000000001
 72
     2
 11
86.125
 21
394.9729670329672
 31
0.0
100
AcDbText
 73
     2
  0
CIRCLE
  5
710
330
18
100
AcDbEntity
  8
文字
 48
100.0
100
AcDbCircle
 10
385.25
 20
361.2229670329672
 30
0.0
 40
2.4
  0
MTEXT
  5
711
330
18
100
AcDbEntity
  8
文字
 48
100.0
100
AcDbMText
 10
265.458333333333
 20
492.7229670329672
 30
0.0
 40
1.7
 41
6.444444444444343
 46
2.749999999999998
 71
     1
 72
     5
  1
\pxsm1,qd;{\T0.9;\W0.6;防振支持}
 73
     1
 44
1.0
1001
ACAD
1000
ACAD_MTEXT_DEFINED_HEIGHT_BEGIN
1070
    46
1040
2.749999999999998
1000
ACAD_MTEXT_DEFINED_HEIGHT_END
  0
MTEXT
  5
712
330
18
100
AcDbEntity
  8
文字
 48
100.0
100
AcDbMText
 10
287.7916666666661
 20
492.7229670329672
 30
0.0
 40
1.7
 41
6.444444444444343
 46
2.749999999999998
 71
     1
 72
     5
  1
\pxsm1,qd;{\T0.9;\W0.6;防振支持}
 73
     1
 44
1.0
1001
ACAD
1000
ACAD_MTEXT_DEFINED_HEIGHT_BEGIN
1070
    46
1040
2.749999999999998
1000
ACAD_MTEXT_DEFINED_HEIGHT_END
  0
MTEXT
  5
713
330
18
100
AcDbEntity
  8
文字
 48
100.0
100
AcDbMText
 10
243.1250000000005
 20
542.7229670329672
 30
0.0
 40
1.7
 41
6.444444444444343
 46
2.749999999999998
 71
     1
 72
     5
  1
\pxsm1,qd;{\T0.9;\W0.6;防振支持}
 73
     1
 44
1.0
1001
ACAD
1000
ACAD_MTEXT_DEFINED_HEIGHT_BEGIN
1070
    46
1040
2.749999999999998
1000
ACAD_MTEXT_DEFINED_HEIGHT_END
  0
MTEXT
  5
714
330
18
100
AcDbEntity
  8
文字
 48
100.0
100
AcDbMText
 10
265.4583333333335
 20
542.7229670329672
 30
0.0
 40
1.7
 41
6.444444444444343
 46
2.749999999999998
 71
     1
 72
     5
  1
\pxsm1,qd;{\T0.9;\W0.6;防振支持}
 73
     1
 44
1.0
1001
ACAD
1000
ACAD_MTEXT_DEFINED_HEIGHT_BEGIN
1070
    46
1040
2.749999999999998
1000
ACAD_MTEXT_DEFINED_HEIGHT_END
  0
MTEXT
  5
715
330
18
100
AcDbEntity
  8
文字
 48
100.0
100
AcDbMText
 10
287.7916666666665
 20
542.7229670329672
 30
0.0
 40
1.7
 41
6.444444444444343
 46
2.749999999999998
 71
     1
 72
     5
  1
\pxsm1,qd;{\T0.9;\W0.6;防振支持}
 73
     1
 44
1.0
1001
ACAD
1000
ACAD_MTEXT_DEFINED_HEIGHT_BEGIN
1070
    46
1040
2.749999999999998
1000
ACAD_MTEXT_DEFINED_HEIGHT_END
  0
TEXT
  5
7D8
330
18
100
AcDbEntity
  8
文字
 48
100.0
100
AcDbText
 10
93.04631979695432
 20
592.0729670329672
 30
0.0
 40
1.8
  1
※1.0 ・(     )
 41
0.7500000000000001
 72
     1
 11
99.625
 21
592.9729670329672
 31
0.0
100
AcDbText
 73
     2
  0
TEXT
  5
7D9
330
18
100
AcDbEntity
  8
文字
 48
100.0
100
AcDbText
 10
93.04631979695432
 20
589.0729670329672
 30
0.0
 40
1.8
  1
※0.6 ・(     )
 41
0.7500000000000001
 72
     1
 11
99.625
 21
589.9729670329672
 31
0.0
100
AcDbText
 73
     2
  0
TEXT
  5
7DA
330
18
100
AcDbEntity
  8
文字
 48
100.0
100
AcDbText
 10
48.04631979695431
 20
589.0729670329672
 30
0.0
 40
1.8
  1
※1.0 ・(     )
 41
0.7500000000000001
 72
     1
 11
54.625
 21
589.9729670329672
 31
0.0
100
AcDbText
 73
     2
  0
TEXT
  5
7DB
330
18
100
AcDbEntity
  8
文字
 48
100.0
100
AcDbText
 10
48.04631979695431
 20
586.0729670329672
 30
0.0
 40
1.8
  1
※0.6 ・(     )
 41
0.7500000000000001
 72
     1
 11
54.625
 21
586.9729670329672
 31
0.0
100
AcDbText
 73
     2
  0
TEXT
  5
8A6
330
18
100
AcDbEntity
  8
文字
 48
100.0
100
AcDbText
 10
162.7810913705584
 20
597.6729670329672
 30
0.0
 40
1.6
  1
（　　　　　　　　）
 41
0.7500000000000001
 72
     2
 11
178.375
 21
598.4729670329672
 31
0.0
100
AcDbText
 73
     2
  0
TEXT
  5
8A7
330
18
100
AcDbEntity
  8
文字
 48
100.0
100
AcDbText
 10
162.7810913705584
 20
594.6729670329672
 30
0.0
 40
1.6
  1
（　　　　　　　　）
 41
0.7500000000000001
 72
     2
 11
178.375
 21
595.4729670329672
 31
0.0
100
AcDbText
 73
     2
  0
VIEWPORT
  5
25B
102
{ACAD_XDICTIONARY
360
25C
102
}
330
21
100
AcDbEntity
 67
     1
  8
0
 48
100.0
100
AcDbViewport
 10
102041.8731125925
 20
197684.4255012295
 30
0.0
 40
444.36
 41
314.226
 68
     1
 69
     1
 12
102041.8731125925
 22
197684.4255012295
 13
0.0
 23
0.0
 14
10.0
 24
10.0
 15
10.0
 25
10.0
 16
0.0
 26
0.0
 36
1.0
 17
0.0
 27
0.0
 37
0.0
 42
50.0
 43
0.0
 44
0.0
 45
314.226
 50
0.0
 51
0.0
 72
   100
 90
   557088
  1

281
     0
 71
     1
 74
     0
110
0.0
120
0.0
130
0.0
111
1.0
121
0.0
131
0.0
112
0.0
122
1.0
132
0.0
 79
     0
146
0.0
170
     0
 61
     5
348
245
292
     1
282
     1
141
0.0
142
0.0
 63
   256
  0
ENDSEC
  0
SECTION
  2
OBJECTS
  0
DICTIONARY
  5
9
330
0
100
AcDbDictionary
281
     1
  3
ACAD_COLOR
350
36
  3
ACAD_DETAILVIEWSTYLE
350
23E
  3
ACAD_GROUP
350
34
  3
ACAD_LAYOUT
350
1F
  3
ACAD_MATERIAL
350
B
  3
ACAD_MLEADERSTYLE
350
23D
  3
ACAD_MLINESTYLE
350
30
  3
ACAD_PLOTSETTINGS
350
35
  3
ACAD_PLOTSTYLENAME
350
8
  3
ACAD_SCALELIST
350
3A
  3
ACAD_SECTIONVIEWSTYLE
350
23F
  3
ACAD_TABLESTYLE
350
23C
  3
ACAD_VISUALSTYLE
350
37
  3
AcDbVariableDictionary
350
23A
  0
DICTIONARY
  5
3
330
2
100
AcDbDictionary
280
     1
281
     1
  3
ACLYDICTIONARY
360
4
  0
DICTIONARY
  5
19
330
18
100
AcDbDictionary
280
     1
281
     1
  3
ACAD_SORTENTS
360
1A
  0
DICTIONARY
  5
25C
330
25B
100
AcDbDictionary
280
     1
281
     1
  3
ASDK_XREC_ANNOTATION_SCALE_INFO
360
25D
  0
DICTIONARY
  5
36
102
{ACAD_REACTORS
330
9
102
}
330
9
100
AcDbDictionary
281
     1
  0
DICTIONARY
  5
23E
102
{ACAD_REACTORS
330
9
102
}
330
9
100
AcDbDictionary
281
     1
  0
DICTIONARY
  5
34
102
{ACAD_REACTORS
330
9
102
}
330
9
100
AcDbDictionary
281
     1
  0
DICTIONARY
  5
1F
102
{ACAD_REACTORS
330
9
102
}
330
9
100
AcDbDictionary
281
     1
  3
Model
350
1E
  3
ペーバー
350
24
  0
DICTIONARY
  5
B
102
{ACAD_REACTORS
330
9
102
}
330
9
100
AcDbDictionary
281
     1
  3
ByBlock
350
6D
  3
ByLayer
350
13
  3
Global
350
A
  0
DICTIONARY
  5
23D
102
{ACAD_REACTORS
330
9
102
}
330
9
100
AcDbDictionary
281
     1
  3
Standard
350
259
  0
DICTIONARY
  5
30
102
{ACAD_REACTORS
330
9
102
}
330
9
100
AcDbDictionary
281
     1
  3
Standard
350
2F
  0
DICTIONARY
  5
35
102
{ACAD_REACTORS
330
9
102
}
330
9
100
AcDbDictionary
281
     1
  0
ACDBDICTIONARYWDFLT
  5
8
102
{ACAD_REACTORS
330
9
102
}
330
9
100
AcDbDictionary
281
     1
  3
Normal
350
7
100
AcDbDictionaryWithDefault
340
7
  0
DICTIONARY
  5
3A
102
{ACAD_REACTORS
330
9
102
}
330
9
100
AcDbDictionary
281
     1
  3
*A1
350
4C
  3
*A10
350
64
  3
*A11
350
65
  3
*A12
350
55
  3
*A13
350
66
  3
*A14
350
67
  3
*A15
350
68
  3
*A16
350
4E
  3
*A17
350
69
  3
*A18
350
6A
  3
*A19
350
6B
  3
*A2
350
5D
  3
*A20
350
6C
  3
*A21
350
4F
  3
*A22
350
50
  3
*A23
350
56
  3
*A24
350
51
  3
*A25
350
52
  3
*A26
350
53
  3
*A27
350
54
  3
*A28
350
57
  3
*A29
350
58
  3
*A3
350
5E
  3
*A30
350
59
  3
*A31
350
5A
  3
*A32
350
5B
  3
*A33
350
5C
  3
*A4
350
4D
  3
*A5
350
5F
  3
*A6
350
60
  3
*A7
350
61
  3
*A8
350
62
  3
*A9
350
63
  0
DICTIONARY
  5
23F
102
{ACAD_REACTORS
330
9
102
}
330
9
100
AcDbDictionary
281
     1
  0
DICTIONARY
  5
23C
102
{ACAD_REACTORS
330
9
102
}
330
9
100
AcDbDictionary
281
     1
  0
DICTIONARY
  5
37
102
{ACAD_REACTORS
330
9
102
}
330
9
100
AcDbDictionary
281
     1
  3
2dWireframe
350
245
  3
Basic
350
248
  3
Brighten
350
24C
  3
ColorChange
350
250
  3
Conceptual
350
24A
  3
Dim
350
24B
  3
EdgeColorOff
350
253
  3
Facepattern
350
24F
  3
Flat
350
241
  3
FlatWithEdges
350
242
  3
Gouraud
350
243
  3
GouraudWithEdges
350
244
  3
Hidden
350
247
  3
JitterOff
350
251
  3
Linepattern
350
24E
  3
OverhangOff
350
252
  3
Realistic
350
249
  3
Shaded
350
258
  3
Shaded with edges
350
257
  3
Shades of Gray
350
254
  3
Sketchy
350
255
  3
Thicken
350
24D
  3
Wireframe
350
246
  3
X-Ray
350
256
  0
DICTIONARY
  5
23A
102
{ACAD_REACTORS
330
9
102
}
330
9
100
AcDbDictionary
281
     1
  3
CANNOSCALE
350
23B
  3
CMLEADERSTYLE
350
261
  3
MSLTSCALE
350
7DC
  0
DICTIONARY
  5
4
102
{ACAD_REACTORS
330
3
102
}
330
3
100
AcDbDictionary
281
     1
1001
ACAD
1000
All
  0
SORTENTSTABLE
  5
1A
102
{ACAD_REACTORS
330
19
102
}
330
19
100
AcDbSortentsTable
330
18
331
0
  5
370
331
71
  5
72
331
72
  5
74
331
74
  5
7D
331
7D
  5
88
331
88
  5
1A2
331
1A2
  5
1A5
331
1A5
  5
1A6
331
1A6
  5
1A7
331
1A7
  5
1AA
331
1AA
  5
1AC
331
1AC
  5
1AD
331
1AD
  5
1AE
331
1AE
  5
1AF
331
1AF
  5
1B3
331
1B3
  5
1B4
331
1B4
  5
1B5
331
1B5
  5
1BA
331
1BA
  5
1BD
331
1BD
  5
1BE
331
1BE
  5
1BF
331
1BF
  5
1C0
331
1C0
  5
1C4
331
1C4
  5
1C5
331
1C5
  5
1C6
331
1C6
  5
1C7
331
1C7
  5
1C8
331
1C8
  5
1C9
331
1C9
  5
1CA
331
1CA
  5
1CB
331
1CB
  5
1CC
331
1CC
  5
1CD
331
1CD
  5
1CE
331
1CE
  5
1CF
331
1CF
  5
1D0
331
1D0
  5
1D1
331
1D1
  5
1D2
331
1D2
  5
1D3
331
1D3
  5
1D4
331
1D4
  5
1D5
331
1D5
  5
1D6
331
1D6
  5
1D7
331
1D7
  5
1D8
331
1D8
  5
1D9
331
1D9
  5
1DA
331
1DA
  5
1DB
331
1DB
  5
1DC
331
1DC
  5
1DD
331
1DD
  5
1DE
331
1DE
  5
1E3
331
1E3
  5
1E4
331
1E4
  5
1E7
331
1E7
  5
1E8
331
1E8
  5
1E9
331
1E9
  5
1EB
331
1EB
  5
20E
331
20E
  5
210
331
210
  5
212
331
212
  5
214
331
214
  5
215
331
215
  5
216
331
216
  5
217
331
217
  5
218
331
218
  5
219
331
219
  5
21B
331
21B
  5
21D
331
21D
  5
21E
331
21E
  5
21F
331
21F
  5
220
331
220
  5
221
331
221
  5
223
331
223
  5
225
331
225
  5
226
331
226
  5
227
331
227
  5
228
331
228
  5
229
331
229
  5
22A
331
22A
  5
22B
331
22B
  5
22C
331
22C
  5
22E
331
22E
  5
22F
331
22F
  5
230
331
230
  5
231
331
231
  5
232
331
232
  5
233
331
233
  5
234
331
234
  5
235
331
235
  5
236
331
236
  5
237
331
237
  5
238
331
238
  5
239
331
239
  5
263
331
263
  5
283
331
283
  5
284
331
284
  5
285
331
285
  5
286
331
286
  5
287
331
287
  5
288
331
288
  5
289
331
289
  5
28A
331
28A
  5
28B
331
28B
  5
28C
331
28C
  5
28D
331
28D
  5
28E
331
28E
  5
291
331
291
  5
292
331
292
  5
293
331
293
  5
294
331
294
  5
295
331
295
  5
296
331
296
  5
297
331
297
  5
298
331
298
  5
299
331
299
  5
29A
331
29A
  5
29D
331
29D
  5
29F
331
29F
  5
2A0
331
2A0
  5
2A1
331
2A1
  5
2A2
331
2A2
  5
2A4
331
2A4
  5
2A5
331
2A5
  5
2A6
331
2A6
  5
2A7
331
2A7
  5
2A9
331
2A9
  5
2AA
331
2AA
  5
2AB
331
2AB
  5
2AC
331
2AC
  5
2AE
331
2AE
  5
2AF
331
2AF
  5
2B0
331
2B0
  5
2B1
331
2B1
  5
2B3
331
2B3
  5
2B4
331
2B4
  5
2B5
331
2B5
  5
2B6
331
2B6
  5
2B8
331
2B8
  5
2B9
331
2B9
  5
2BA
331
2BA
  5
2BB
331
2BB
  5
2BC
331
2BC
  5
2BD
331
2BD
  5
2BE
331
2BE
  5
2BF
331
2BF
  5
2C0
331
2C0
  5
2C2
331
2C2
  5
2C3
331
2C3
  5
2C4
331
2C4
  5
2C5
331
2C5
  5
2C7
331
2C7
  5
2C8
331
2C8
  5
2C9
331
2C9
  5
2CA
331
2CA
  5
2CC
331
2CC
  5
2CD
331
2CD
  5
2CE
331
2CE
  5
2CF
331
2CF
  5
2D0
331
2D0
  5
2D1
331
2D1
  5
2D2
331
2D2
  5
2D3
331
2D3
  5
2D4
331
2D4
  5
2D5
331
2D5
  5
2D6
331
2D6
  5
2D7
331
2D7
  5
2DD
331
2DC
  5
2DF
331
2DD
  5
2E0
331
2DE
  5
2E1
331
2DF
  5
2E2
331
2E0
  5
2E3
331
2E1
  5
2E4
331
2E2
  5
2E5
331
2E3
  5
2E6
331
2E4
  5
2E7
331
2E5
  5
2E8
331
2E6
  5
2E9
331
2E7
  5
2EA
331
2E8
  5
2EB
331
2E9
  5
2EC
331
2EA
  5
2ED
331
2EB
  5
2EE
331
2EC
  5
2EF
331
2ED
  5
2F0
331
2EE
  5
2F1
331
2EF
  5
2F2
331
2F0
  5
2F3
331
2F1
  5
2F4
331
2F2
  5
2F5
331
2F3
  5
2F6
331
2F4
  5
2F7
331
2F5
  5
2F8
331
2F6
  5
2F9
331
2F7
  5
2FA
331
2F8
  5
2FB
331
2F9
  5
2FC
331
2FA
  5
2FD
331
2FB
  5
2FE
331
2FC
  5
2FF
331
2FD
  5
300
331
2FE
  5
301
331
2FF
  5
302
331
300
  5
303
331
301
  5
304
331
302
  5
305
331
303
  5
306
331
304
  5
307
331
305
  5
308
331
306
  5
309
331
307
  5
30A
331
308
  5
30B
331
309
  5
30C
331
30A
  5
30D
331
30B
  5
30E
331
30C
  5
30F
331
30D
  5
310
331
30E
  5
311
331
30F
  5
313
331
310
  5
314
331
311
  5
315
331
313
  5
316
331
314
  5
318
331
315
  5
319
331
316
  5
31A
331
318
  5
31B
331
319
  5
31D
331
31A
  5
31E
331
31B
  5
31F
331
31D
  5
320
331
31E
  5
321
331
31F
  5
322
331
320
  5
324
331
321
  5
325
331
322
  5
326
331
324
  5
327
331
325
  5
329
331
326
  5
32A
331
327
  5
32B
331
329
  5
32C
331
32A
  5
32E
331
32B
  5
32F
331
32C
  5
330
331
32E
  5
331
331
32F
  5
332
331
330
  5
333
331
331
  5
335
331
332
  5
336
331
333
  5
337
331
335
  5
338
331
336
  5
33A
331
337
  5
33B
331
338
  5
33C
331
33A
  5
33D
331
33B
  5
33F
331
33C
  5
340
331
33D
  5
341
331
33F
  5
342
331
340
  5
343
331
341
  5
345
331
342
  5
347
331
343
  5
348
331
344
  5
349
331
346
  5
34A
331
347
  5
34B
331
348
  5
34C
331
349
  5
34D
331
34A
  5
34E
331
34B
  5
34F
331
34C
  5
350
331
34D
  5
351
331
34E
  5
352
331
34F
  5
353
331
350
  5
354
331
351
  5
355
331
352
  5
356
331
353
  5
357
331
354
  5
358
331
355
  5
359
331
356
  5
35A
331
357
  5
35B
331
358
  5
35C
331
359
  5
35D
331
35A
  5
35E
331
35B
  5
35F
331
35C
  5
360
331
35D
  5
361
331
35E
  5
362
331
35F
  5
363
331
360
  5
364
331
361
  5
365
331
362
  5
366
331
363
  5
367
331
364
  5
368
331
365
  5
369
331
366
  5
36A
331
367
  5
36B
331
368
  5
36C
331
369
  5
36D
331
36A
  5
36E
331
36B
  5
36F
331
36F
  5
373
331
370
  5
374
331
371
  5
375
331
372
  5
376
331
373
  5
377
331
374
  5
378
331
375
  5
379
331
376
  5
37A
331
377
  5
37B
331
378
  5
37C
331
379
  5
37D
331
37A
  5
37E
331
37B
  5
37F
331
37C
  5
380
331
37D
  5
381
331
37E
  5
382
331
37F
  5
383
331
380
  5
384
331
381
  5
385
331
382
  5
386
331
383
  5
387
331
384
  5
388
331
385
  5
389
331
386
  5
38A
331
387
  5
38B
331
388
  5
38C
331
389
  5
38D
331
38A
  5
38E
331
38B
  5
38F
331
38C
  5
390
331
38D
  5
391
331
38E
  5
392
331
38F
  5
393
331
390
  5
394
331
391
  5
395
331
392
  5
396
331
393
  5
397
331
394
  5
398
331
395
  5
399
331
396
  5
3E7
331
397
  5
3E8
331
398
  5
3E9
331
3E6
  5
3EA
331
3E7
  5
3EB
331
3E8
  5
3EC
331
3E9
  5
3ED
331
3EA
  5
3EE
331
3EB
  5
3EF
331
3EC
  5
3F0
331
3ED
  5
3F1
331
3EE
  5
3F2
331
3EF
  5
3F3
331
3F0
  5
3F4
331
3F1
  5
3F5
331
3F2
  5
3F6
331
3F3
  5
3F7
331
3F4
  5
3F8
331
3F5
  5
3F9
331
3F6
  5
3FA
331
3F7
  5
3FB
331
3F8
  5
3FC
331
3F9
  5
3FD
331
3FA
  5
3FE
331
3FB
  5
3FF
331
3FC
  5
401
331
3FD
  5
402
331
3FE
  5
403
331
400
  5
404
331
401
  5
405
331
402
  5
406
331
403
  5
407
331
404
  5
408
331
405
  5
40A
331
406
  5
416
331
407
  5
41C
331
409
  5
41E
331
415
  5
43A
331
41B
  5
43F
331
41D
  5
440
331
439
  5
441
331
43E
  5
442
331
43F
  5
444
331
440
  5
449
331
441
  5
44F
331
448
  5
45B
331
44E
  5
469
331
453
  5
46D
331
45A
  5
46E
331
468
  5
46F
331
46C
  5
471
331
46D
  5
472
331
46E
  5
473
331
470
  5
474
331
471
  5
475
331
472
  5
476
331
473
  5
477
331
474
  5
478
331
475
  5
479
331
476
  5
47A
331
477
  5
47B
331
478
  5
47C
331
479
  5
47D
331
47A
  5
47E
331
47B
  5
47F
331
47C
  5
480
331
47D
  5
481
331
47E
  5
482
331
47F
  5
485
331
480
  5
668
331
481
  5
684
331
484
  5
687
331
666
  5
688
331
687
  5
695
331
688
  5
696
331
695
  5
698
331
696
  5
699
331
698
  5
69D
331
699
  5
69E
331
69A
  5
69F
331
69D
  5
6A0
331
69E
  5
6A1
331
69F
  5
6A2
331
6A1
  5
6A4
331
6A2
  5
6A5
331
6A4
  5
6BB
331
6A5
  5
6BC
331
6BA
  5
6BD
331
6BB
  5
6BE
331
6BC
  5
6BF
331
6BD
  5
6C0
331
6BE
  5
6C1
331
6BF
  5
6C2
331
6C0
  5
6C3
331
6C1
  5
6C4
331
6C2
  5
6C5
331
6C3
  5
6C6
331
6C4
  5
6C7
331
6C5
  5
6C8
331
6C6
  5
6CA
331
6C7
  5
6CB
331
6C8
  5
6CD
331
6CA
  5
6CE
331
6CB
  5
6CF
331
6CD
  5
6D0
331
6CE
  5
6D1
331
6CF
  5
6D2
331
6D0
  5
6D3
331
6D1
  5
6D4
331
6D2
  5
6D7
331
6D3
  5
6D8
331
6D4
  5
6D9
331
6D7
  5
6DA
331
6D8
  5
6DB
331
6DB
  5
6DE
331
6DC
  5
6DF
331
6DD
  5
6E0
331
6DE
  5
6E1
331
6DF
  5
6E3
331
6E3
  5
6E7
331
6E4
  5
6E8
331
6E6
  5
6E9
331
6E7
  5
6EA
331
6E8
  5
6EB
331
6E9
  5
6EC
331
6EA
  5
6ED
331
6EB
  5
6EE
331
6EC
  5
6EF
331
0
  5
6F0
331
0
  5
6F1
331
708
  5
70B
331
709
  5
70C
331
70A
  5
70D
331
70B
  5
70E
331
710
  5
71
  0
XRECORD
  5
25D
102
{ACAD_REACTORS
330
25C
102
}
330
25C
100
AcDbXrecord
280
     1
 90
        1
340
4C
  0
LAYOUT
  5
1E
102
{ACAD_REACTORS
330
1F
102
}
330
1F
100
AcDbPlotSettings
  1

  2
Adobe PDF
  4
A3
  6

 40
0.0
 41
0.1
 42
0.0
 43
0.0
 44
297.0
 45
420.2
 46
8.0
 47
7.549999999999983
 48
7.5
 49
348.9729670329672
140
412.5
141
629.9729670329672
142
1.0
143
1.0
 70
 11940
 72
     1
 73
     1
 74
     4
  7
@DLT-通常.ctb
 75
     0
 76
     0
 77
     2
 78
   300
147
1.0
148
-7.5
149
-348.9729670329672
100
AcDbLayout
  1
Model
 70
     0
 71
     0
 10
0.0
 20
0.0
 11
0.0
 21
0.0
 12
0.0
 22
0.0
 32
0.0
 14
0.0
 24
340.4729670329672
 34
0.0
 15
420.0
 25
637.4729670329672
 35
0.0
146
0.0
 13
0.0
 23
0.0
 33
0.0
 16
1.0
 26
0.0
 36
0.0
 17
0.0
 27
1.0
 37
0.0
 76
     0
330
18
331
38
1001
ACAD_PSEXT
1000
Adobe PDF
1000
Adobe PDF Converter
1000
Documents\*.pdf
1000

1070
     0
  0
LAYOUT
  5
24
102
{ACAD_REACTORS
330
1F
102
}
330
1F
100
AcDbPlotSettings
  1

  2
Delta-SC_PDF.pc3
  4
User76
  6

 40
7.0
 41
8.0
 42
7.0
 43
8.0
 44
420.0
 45
297.0
 46
0.5000000000218279
 47
0.5000000000145519
 48
101839.3731125926
 49
197544.4255012295
140
102244.3731125925
141
197824.4255012295
142
1.0
143
1.0
 70
   676
 72
     1
 73
     0
 74
     4
  7
@DLT-通常.ctb
 75
     0
 76
     0
 77
     2
 78
   300
147
1.0
148
-101839.3731125926
149
-197544.4255012295
100
AcDbLayout
  1
ペーバー
 70
     0
 71
     1
 10
101831.8731125925
 20
197535.9255012295
 11
102251.8731125925
 21
197832.9255012295
 12
0.0
 22
0.0
 32
0.0
 14
101881.5065604734
 24
197571.0234393738
 34
0.0
 15
102202.2396647117
 25
197797.8275630852
 35
0.0
146
0.0
 13
0.0
 23
0.0
 33
0.0
 16
1.0
 26
0.0
 36
0.0
 17
0.0
 27
1.0
 37
0.0
 76
     0
330
21
331
25B
1001
ACAD_PSEXT
1000
Delta-SC_PDF.pc3
1000
PDF 1.0
1000
FILE:
1000
PDF 1.0 driver
1070
     0
  0
MATERIAL
  5
6D
102
{ACAD_REACTORS
330
B
102
}
330
B
100
AcDbMaterial
  1
ByBlock
 72
     1
 94
      127
  0
MATERIAL
  5
13
102
{ACAD_REACTORS
330
B
102
}
330
B
100
AcDbMaterial
  1
ByLayer
 72
     1
 94
      127
  0
MATERIAL
  5
A
102
{ACAD_REACTORS
330
B
102
}
330
B
100
AcDbMaterial
  1
Global
 72
     1
 94
      127
1001
ACAD
1070
    -1
1070
     3
1070
     0
1000

1071
        0
  0
MLEADERSTYLE
  5
259
102
{ACAD_REACTORS
330
23D
102
}
102
{ACAD_XDICTIONARY
360
9A2
102
}
330
23D
100
AcDbMLeaderStyle
170
     2
171
     1
172
     0
 90
        2
 40
0.0
 41
0.0
173
     1
 91
-1056964608
340
F
 92
       -2
290
     1
 42
2.0
291
     1
 43
8.0
  3
Standard
341
0
 44
4.0
300

342
11
174
     1
178
     6
175
     1
176
     0
 93
-1056964608
 45
4.0
292
     0
297
     0
 46
4.0
343
0
 94
-1056964608
 47
1.0
 49
1.0
140
1.0
293
     1
141
0.0
294
     1
177
     0
142
1.0
295
     0
296
     0
143
3.75
1001
ACAD_MLEADERVER
1070
     2
  0
MLINESTYLE
  5
2F
102
{ACAD_REACTORS
330
30
102
}
330
30
100
AcDbMlineStyle
  2
STANDARD
 70
     0
  3

 62
     0
 51
90.0
 52
90.0
 71
     2
 49
0.5
 62
   256
  6
BYLAYER
 49
-0.5
 62
   256
  6
BYLAYER
  0
ACDBPLACEHOLDER
  5
7
102
{ACAD_REACTORS
330
8
102
}
330
8
  0
SCALE
  5
4C
102
{ACAD_REACTORS
330
3A
102
}
330
3A
100
AcDbScale
 70
     0
300
1:1
140
1.0
141
1.0
290
     1
  0
SCALE
  5
64
102
{ACAD_REACTORS
330
3A
102
}
330
3A
100
AcDbScale
 70
     0
300
1/4" = 1'-0"
140
0.25
141
12.0
290
     0
  0
SCALE
  5
65
102
{ACAD_REACTORS
330
3A
102
}
330
3A
100
AcDbScale
 70
     0
300
3/8" = 1'-0"
140
0.375
141
12.0
290
     0
  0
SCALE
  5
55
102
{ACAD_REACTORS
330
3A
102
}
330
3A
100
AcDbScale
 70
     0
300
1:40
140
1.0
141
40.0
290
     0
  0
SCALE
  5
66
102
{ACAD_REACTORS
330
3A
102
}
330
3A
100
AcDbScale
 70
     0
300
1/2" = 1'-0"
140
0.5
141
12.0
290
     0
  0
SCALE
  5
67
102
{ACAD_REACTORS
330
3A
102
}
330
3A
100
AcDbScale
 70
     0
300
3/4" = 1'-0"
140
0.75
141
12.0
290
     0
  0
SCALE
  5
68
102
{ACAD_REACTORS
330
3A
102
}
330
3A
100
AcDbScale
 70
     0
300
1" = 1'-0"
140
1.0
141
12.0
290
     0
  0
SCALE
  5
4E
102
{ACAD_REACTORS
330
3A
102
}
330
3A
100
AcDbScale
 70
     0
300
1:4
140
1.0
141
4.0
290
     0
  0
SCALE
  5
69
102
{ACAD_REACTORS
330
3A
102
}
330
3A
100
AcDbScale
 70
     0
300
1-1/2" = 1'-0"
140
1.5
141
12.0
290
     0
  0
SCALE
  5
6A
102
{ACAD_REACTORS
330
3A
102
}
330
3A
100
AcDbScale
 70
     0
300
3" = 1'-0"
140
3.0
141
12.0
290
     0
  0
SCALE
  5
6B
102
{ACAD_REACTORS
330
3A
102
}
330
3A
100
AcDbScale
 70
     0
300
6" = 1'-0"
140
6.0
141
12.0
290
     0
  0
SCALE
  5
5D
102
{ACAD_REACTORS
330
3A
102
}
330
3A
100
AcDbScale
 70
     0
300
1/128" = 1'-0"
140
0.0078125
141
12.0
290
     0
  0
SCALE
  5
6C
102
{ACAD_REACTORS
330
3A
102
}
330
3A
100
AcDbScale
 70
     0
300
1'-0" = 1'-0"
140
12.0
141
12.0
290
     0
  0
SCALE
  5
4F
102
{ACAD_REACTORS
330
3A
102
}
330
3A
100
AcDbScale
 70
     0
300
1:5
140
1.0
141
5.0
290
     0
  0
SCALE
  5
50
102
{ACAD_REACTORS
330
3A
102
}
330
3A
100
AcDbScale
 70
     0
300
1:8
140
1.0
141
8.0
290
     0
  0
SCALE
  5
56
102
{ACAD_REACTORS
330
3A
102
}
330
3A
100
AcDbScale
 70
     0
300
1:50
140
1.0
141
50.0
290
     0
  0
SCALE
  5
51
102
{ACAD_REACTORS
330
3A
102
}
330
3A
100
AcDbScale
 70
     0
300
1:10
140
1.0
141
10.0
290
     0
  0
SCALE
  5
52
102
{ACAD_REACTORS
330
3A
102
}
330
3A
100
AcDbScale
 70
     0
300
1:16
140
1.0
141
16.0
290
     0
  0
SCALE
  5
53
102
{ACAD_REACTORS
330
3A
102
}
330
3A
100
AcDbScale
 70
     0
300
1:20
140
1.0
141
20.0
290
     0
  0
SCALE
  5
54
102
{ACAD_REACTORS
330
3A
102
}
330
3A
100
AcDbScale
 70
     0
300
1:30
140
1.0
141
30.0
290
     0
  0
SCALE
  5
57
102
{ACAD_REACTORS
330
3A
102
}
330
3A
100
AcDbScale
 70
     0
300
1:100
140
1.0
141
100.0
290
     0
  0
SCALE
  5
58
102
{ACAD_REACTORS
330
3A
102
}
330
3A
100
AcDbScale
 70
     0
300
2:1
140
2.0
141
1.0
290
     0
  0
SCALE
  5
5E
102
{ACAD_REACTORS
330
3A
102
}
330
3A
100
AcDbScale
 70
     0
300
1/64" = 1'-0"
140
0.015625
141
12.0
290
     0
  0
SCALE
  5
59
102
{ACAD_REACTORS
330
3A
102
}
330
3A
100
AcDbScale
 70
     0
300
4:1
140
4.0
141
1.0
290
     0
  0
SCALE
  5
5A
102
{ACAD_REACTORS
330
3A
102
}
330
3A
100
AcDbScale
 70
     0
300
8:1
140
8.0
141
1.0
290
     0
  0
SCALE
  5
5B
102
{ACAD_REACTORS
330
3A
102
}
330
3A
100
AcDbScale
 70
     0
300
10:1
140
10.0
141
1.0
290
     0
  0
SCALE
  5
5C
102
{ACAD_REACTORS
330
3A
102
}
330
3A
100
AcDbScale
 70
     0
300
100:1
140
100.0
141
1.0
290
     0
  0
SCALE
  5
4D
102
{ACAD_REACTORS
330
3A
102
}
330
3A
100
AcDbScale
 70
     0
300
1:2
140
1.0
141
2.0
290
     0
  0
SCALE
  5
5F
102
{ACAD_REACTORS
330
3A
102
}
330
3A
100
AcDbScale
 70
     0
300
1/32" = 1'-0"
140
0.03125
141
12.0
290
     0
  0
SCALE
  5
60
102
{ACAD_REACTORS
330
3A
102
}
330
3A
100
AcDbScale
 70
     0
300
1/16" = 1'-0"
140
0.0625
141
12.0
290
     0
  0
SCALE
  5
61
102
{ACAD_REACTORS
330
3A
102
}
330
3A
100
AcDbScale
 70
     0
300
3/32" = 1'-0"
140
0.09375
141
12.0
290
     0
  0
SCALE
  5
62
102
{ACAD_REACTORS
330
3A
102
}
330
3A
100
AcDbScale
 70
     0
300
1/8" = 1'-0"
140
0.125
141
12.0
290
     0
  0
SCALE
  5
63
102
{ACAD_REACTORS
330
3A
102
}
330
3A
100
AcDbScale
 70
     0
300
3/16" = 1'-0"
140
0.1875
141
12.0
290
     0
  0
VISUALSTYLE
  5
245
102
{ACAD_REACTORS
330
37
102
}
102
{ACAD_XDICTIONARY
360
9A4
102
}
330
37
100
AcDbVisualStyle
  2
2dWireframe
 70
     4
 71
     0
 72
     2
 73
     0
 90
        0
 40
0.6
 41
30.0
 62
     5
 63
     7
421
 16777215
 74
     1
 91
        4
 64
     7
 65
   257
 75
     1
175
     1
 42
1.0
 92
        0
 66
   257
 43
1.0
 76
     1
 77
     6
 78
     2
 67
     7
 79
     5
170
     0
171
     0
290
     0
174
     0
 93
        1
 44
0.0
173
     0
291
     0
 45
0.0
  0
VISUALSTYLE
  5
248
102
{ACAD_REACTORS
330
37
102
}
102
{ACAD_XDICTIONARY
360
9A6
102
}
330
37
100
AcDbVisualStyle
  2
Basic
 70
     7
 71
     1
 72
     0
 73
     1
 90
        0
 40
0.6
 41
30.0
 62
     5
 63
     7
421
 16777215
 74
     0
 91
        4
 64
     7
 65
   257
 75
     1
175
     1
 42
1.0
 92
        8
 66
     7
 43
1.0
 76
     1
 77
     6
 78
     2
 67
     7
 79
     5
170
     0
171
     0
290
     0
174
     0
 93
        1
 44
0.0
173
     0
291
     1
 45
0.0
  0
VISUALSTYLE
  5
24C
102
{ACAD_REACTORS
330
37
102
}
102
{ACAD_XDICTIONARY
360
9A8
102
}
330
37
100
AcDbVisualStyle
  2
Brighten
 70
    12
 71
     2
 72
     2
 73
     0
 90
        0
 40
0.6
 41
30.0
 62
     5
 63
     7
421
 16777215
 74
     1
 91
        4
 64
     7
 65
   257
 75
     1
175
     1
 42
1.0
 92
        8
 66
     7
 43
1.0
 76
     1
 77
     6
 78
     2
 67
     7
 79
     5
170
     0
171
     0
290
     0
174
     0
 93
        1
 44
50.0
173
     0
291
     1
 45
0.0
  0
VISUALSTYLE
  5
250
102
{ACAD_REACTORS
330
37
102
}
102
{ACAD_XDICTIONARY
360
9AA
102
}
330
37
100
AcDbVisualStyle
  2
ColorChange
 70
    16
 71
     2
 72
     2
 73
     3
 90
        0
 40
0.6
 41
30.0
 62
     5
 63
     8
421
  8421504
 74
     1
 91
        4
 64
     7
 65
   257
 75
     1
175
     1
 42
1.0
 92
        8
 66
     8
424
  8421504
 43
1.0
 76
     1
 77
     6
 78
     2
 67
     7
 79
     5
170
     0
171
     0
290
     0
174
     0
 93
        1
 44
0.0
173
     0
291
     1
 45
0.0
  0
VISUALSTYLE
  5
24A
102
{ACAD_REACTORS
330
37
102
}
102
{ACAD_XDICTIONARY
360
9AC
102
}
330
37
100
AcDbVisualStyle
  2
Conceptual
 70
     9
 71
     3
 72
     2
 73
     0
 90
        0
 40
0.6
 41
30.0
 62
     5
 63
     7
421
 16777215
 74
     2
 91
        2
 64
     7
 65
   257
 75
     1
175
     1
 42
40.0
 92
        8
 66
     7
 43
1.0
 76
     1
 77
     6
 78
     2
 67
     7
 79
     3
170
     0
171
     0
290
     0
174
     0
 93
        1
 44
0.0
173
     0
291
     0
 45
0.0
  0
VISUALSTYLE
  5
24B
102
{ACAD_REACTORS
330
37
102
}
102
{ACAD_XDICTIONARY
360
9AE
102
}
330
37
100
AcDbVisualStyle
  2
Dim
 70
    11
 71
     2
 72
     2
 73
     0
 90
        0
 40
0.6
 41
30.0
 62
     5
 63
     7
421
 16777215
 74
     1
 91
        4
 64
     7
 65
   257
 75
     1
175
     1
 42
1.0
 92
        8
 66
     7
 43
1.0
 76
     1
 77
     6
 78
     2
 67
     7
 79
     5
170
     0
171
     0
290
     0
174
     0
 93
        1
 44
-50.0
173
     0
291
     1
 45
0.0
  0
VISUALSTYLE
  5
253
102
{ACAD_REACTORS
330
37
102
}
102
{ACAD_XDICTIONARY
360
9B0
102
}
330
37
100
AcDbVisualStyle
  2
EdgeColorOff
 70
    22
 71
     2
 72
     2
 73
     0
 90
        0
 40
0.6
 41
30.0
 62
     5
 63
     7
421
 16777215
 74
     1
 91
        4
 64
     7
 65
   257
 75
     1
175
     1
 42
1.0
 92
        8
 66
     7
 43
1.0
 76
     1
 77
     6
 78
     2
 67
     7
 79
     5
170
     0
171
     0
290
     0
174
     0
 93
        1
 44
0.0
173
     0
291
     1
 45
0.0
  0
VISUALSTYLE
  5
24F
102
{ACAD_REACTORS
330
37
102
}
102
{ACAD_XDICTIONARY
360
9B2
102
}
330
37
100
AcDbVisualStyle
  2
Facepattern
 70
    15
 71
     2
 72
     2
 73
     0
 90
        0
 40
0.6
 41
30.0
 62
     5
 63
     7
421
 16777215
 74
     1
 91
        4
 64
     7
 65
   257
 75
     1
175
     1
 42
1.0
 92
        8
 66
     7
 43
1.0
 76
     1
 77
     6
 78
     2
 67
     7
 79
     5
170
     0
171
     0
290
     0
174
     0
 93
        1
 44
0.0
173
     0
291
     1
 45
0.0
  0
VISUALSTYLE
  5
241
102
{ACAD_REACTORS
330
37
102
}
102
{ACAD_XDICTIONARY
360
9B4
102
}
330
37
100
AcDbVisualStyle
  2
Flat
 70
     0
 71
     2
 72
     1
 73
     1
 90
        2
 40
0.6
 41
30.0
 62
     5
 63
     7
421
 16777215
 74
     0
 91
        4
 64
     7
 65
   257
 75
     1
175
     1
 42
1.0
 92
        8
 66
     7
 43
1.0
 76
     1
 77
     6
 78
     2
 67
     7
 79
     5
170
     0
171
     0
290
     0
174
     0
 93
       13
 44
0.0
173
     0
291
     1
 45
0.0
  0
VISUALSTYLE
  5
242
102
{ACAD_REACTORS
330
37
102
}
102
{ACAD_XDICTIONARY
360
9B6
102
}
330
37
100
AcDbVisualStyle
  2
FlatWithEdges
 70
     1
 71
     2
 72
     1
 73
     1
 90
        2
 40
0.6
 41
30.0
 62
     5
 63
     7
421
 16777215
 74
     1
 91
        4
 64
     7
 65
   257
 75
     1
175
     1
 42
1.0
 92
        0
 66
   257
 43
1.0
 76
     1
 77
     6
 78
     2
 67
     7
 79
     5
170
     0
171
     0
290
     0
174
     0
 93
       13
 44
0.0
173
     0
291
     1
 45
0.0
  0
VISUALSTYLE
  5
243
102
{ACAD_REACTORS
330
37
102
}
102
{ACAD_XDICTIONARY
360
9B8
102
}
330
37
100
AcDbVisualStyle
  2
Gouraud
 70
     2
 71
     2
 72
     2
 73
     1
 90
        2
 40
0.6
 41
30.0
 62
     5
 63
     7
421
 16777215
 74
     0
 91
        4
 64
     7
 65
   257
 75
     1
175
     1
 42
1.0
 92
        0
 66
     7
 43
1.0
 76
     1
 77
     6
 78
     2
 67
     7
 79
     5
170
     0
171
     0
290
     0
174
     0
 93
       13
 44
0.0
173
     0
291
     1
 45
0.0
  0
VISUALSTYLE
  5
244
102
{ACAD_REACTORS
330
37
102
}
102
{ACAD_XDICTIONARY
360
9BA
102
}
330
37
100
AcDbVisualStyle
  2
GouraudWithEdges
 70
     3
 71
     2
 72
     2
 73
     1
 90
        2
 40
0.6
 41
30.0
 62
     5
 63
     7
421
 16777215
 74
     1
 91
        4
 64
     7
 65
   257
 75
     1
175
     1
 42
1.0
 92
        0
 66
   257
 43
1.0
 76
     1
 77
     6
 78
     2
 67
     7
 79
     5
170
     0
171
     0
290
     0
174
     0
 93
       13
 44
0.0
173
     0
291
     1
 45
0.0
  0
VISUALSTYLE
  5
247
102
{ACAD_REACTORS
330
37
102
}
102
{ACAD_XDICTIONARY
360
9BC
102
}
330
37
100
AcDbVisualStyle
  2
Hidden
 70
     6
 71
     1
 72
     2
 73
     2
 90
        0
 40
0.6
 41
30.0
 62
     5
 63
     7
421
 16777215
 74
     2
 91
        2
 64
     7
 65
   257
 75
     2
175
     1
 42
40.0
 92
        0
 66
   257
 43
1.0
 76
     1
 77
     6
 78
     2
 67
     7
 79
     3
170
     0
171
     0
290
     0
174
     0
 93
        1
 44
0.0
173
     0
291
     0
 45
0.0
  0
VISUALSTYLE
  5
251
102
{ACAD_REACTORS
330
37
102
}
102
{ACAD_XDICTIONARY
360
9BE
102
}
330
37
100
AcDbVisualStyle
  2
JitterOff
 70
    20
 71
     2
 72
     2
 73
     0
 90
        0
 40
0.6
 41
30.0
 62
     5
 63
     7
421
 16777215
 74
     1
 91
        4
 64
     7
 65
   257
 75
     1
175
     1
 42
1.0
 92
       10
 66
     7
 43
1.0
 76
     1
 77
     6
 78
     2
 67
     7
 79
     5
170
     0
171
     0
290
     0
174
     0
 93
        1
 44
0.0
173
     0
291
     1
 45
0.0
  0
VISUALSTYLE
  5
24E
102
{ACAD_REACTORS
330
37
102
}
102
{ACAD_XDICTIONARY
360
9C0
102
}
330
37
100
AcDbVisualStyle
  2
Linepattern
 70
    14
 71
     2
 72
     2
 73
     0
 90
        0
 40
0.6
 41
30.0
 62
     5
 63
     7
421
 16777215
 74
     1
 91
        4
 64
     7
 65
   257
 75
     7
175
     7
 42
1.0
 92
        8
 66
     7
 43
1.0
 76
     1
 77
     6
 78
     2
 67
     7
 79
     5
170
     0
171
     0
290
     0
174
     0
 93
        1
 44
0.0
173
     0
291
     1
 45
0.0
  0
VISUALSTYLE
  5
252
102
{ACAD_REACTORS
330
37
102
}
102
{ACAD_XDICTIONARY
360
9C2
102
}
330
37
100
AcDbVisualStyle
  2
OverhangOff
 70
    21
 71
     2
 72
     2
 73
     0
 90
        0
 40
0.6
 41
30.0
 62
     5
 63
     7
421
 16777215
 74
     1
 91
        4
 64
     7
 65
   257
 75
     1
175
     1
 42
1.0
 92
        9
 66
     7
 43
1.0
 76
     1
 77
     6
 78
     2
 67
     7
 79
     5
170
     0
171
     0
290
     0
174
     0
 93
        1
 44
0.0
173
     0
291
     1
 45
0.0
  0
VISUALSTYLE
  5
249
102
{ACAD_REACTORS
330
37
102
}
102
{ACAD_XDICTIONARY
360
9C4
102
}
330
37
100
AcDbVisualStyle
  2
Realistic
 70
     8
 71
     2
 72
     3
 73
     0
 90
        2
 40
0.6
 41
30.0
 62
     5
 63
     7
421
 16777215
 74
     0
 91
        0
 64
     7
 65
   257
 75
     1
175
     1
 42
1.0
 92
        8
 66
   257
 43
1.0
 76
     1
 77
     6
 78
     2
 67
     7
 79
     3
170
     0
171
     0
290
     0
174
     0
 93
       13
 44
0.0
173
     0
291
     0
 45
0.0
  0
VISUALSTYLE
  5
258
102
{ACAD_REACTORS
330
37
102
}
102
{ACAD_XDICTIONARY
360
9C6
102
}
330
37
100
AcDbVisualStyle
  2
Shaded
 70
    27
 71
     2
 72
     2
 73
     1
 90
        2
 40
0.6
 41
30.0
 62
     5
 63
     7
421
 16777215
 74
     0
 91
        4
 64
     7
 65
   257
 75
     1
175
     1
 42
1.0
 92
        8
 66
   257
 43
1.0
 76
     1
 77
     6
 78
     2
 67
   251
425
  5131854
 79
     3
170
     0
171
     0
290
     0
174
     0
 93
        5
 44
0.0
173
     0
291
     0
 45
0.0
  0
VISUALSTYLE
  5
257
102
{ACAD_REACTORS
330
37
102
}
102
{ACAD_XDICTIONARY
360
9C8
102
}
330
37
100
AcDbVisualStyle
  2
Shaded with edges
 70
    26
 71
     2
 72
     2
 73
     1
 90
        2
 40
0.6
 41
30.0
 62
     5
 63
     7
421
 16777215
 74
     1
 91
       10
 64
     7
 65
   257
 75
     2
175
     1
 42
1.0
 92
        8
 66
   257
 43
1.0
 76
     1
 77
     6
 78
     2
 67
     7
 79
     3
170
     0
171
     0
290
     0
174
     0
 93
        5
 44
0.0
173
     0
291
     0
 45
0.0
  0
VISUALSTYLE
  5
254
102
{ACAD_REACTORS
330
37
102
}
102
{ACAD_XDICTIONARY
360
9CA
102
}
330
37
100
AcDbVisualStyle
  2
Shades of Gray
 70
    23
 71
     2
 72
     2
 73
     3
 90
        0
 40
0.6
 41
30.0
 62
     5
 63
     7
421
 16777215
 74
     2
 91
        2
 64
     7
 65
     7
 75
     1
175
     1
 42
40.0
 92
        8
 66
     7
 43
1.0
 76
     1
 77
     6
 78
     2
 67
     7
 79
     3
170
     0
171
     0
290
     0
174
     0
 93
        1
 44
0.0
173
     0
291
     0
 45
0.0
  0
VISUALSTYLE
  5
255
102
{ACAD_REACTORS
330
37
102
}
102
{ACAD_XDICTIONARY
360
9CC
102
}
330
37
100
AcDbVisualStyle
  2
Sketchy
 70
    24
 71
     1
 72
     2
 73
     2
 90
        0
 40
0.6
 41
30.0
 62
     5
 63
     7
421
 16777215
 74
     2
 91
        2
 64
     7
 65
     7
 75
     1
175
     1
 42
40.0
 92
       11
 66
     7
 43
1.0
 76
     1
 77
     6
 78
     2
 67
     7
 79
     6
170
     0
171
     0
290
     0
174
     0
 93
        1
 44
0.0
173
     0
291
     0
 45
0.0
  0
VISUALSTYLE
  5
24D
102
{ACAD_REACTORS
330
37
102
}
102
{ACAD_XDICTIONARY
360
9CE
102
}
330
37
100
AcDbVisualStyle
  2
Thicken
 70
    13
 71
     2
 72
     2
 73
     0
 90
        0
 40
0.6
 41
30.0
 62
     5
 63
     7
421
 16777215
 74
     1
 91
        4
 64
     7
 65
   257
 75
     1
175
     1
 42
1.0
 92
       12
 66
     7
 43
1.0
 76
     1
 77
     6
 78
     2
 67
     7
 79
     5
170
     0
171
     0
290
     0
174
     0
 93
        1
 44
0.0
173
     0
291
     1
 45
0.0
  0
VISUALSTYLE
  5
246
102
{ACAD_REACTORS
330
37
102
}
102
{ACAD_XDICTIONARY
360
9D0
102
}
330
37
100
AcDbVisualStyle
  2
Wireframe
 70
     5
 71
     0
 72
     2
 73
     0
 90
        0
 40
0.6
 41
30.0
 62
     5
 63
     7
421
 16777215
 74
     1
 91
        4
 64
     7
 65
   257
 75
     1
175
     1
 42
1.0
 92
        0
 66
   257
 43
1.0
 76
     1
 77
     6
 78
     2
 67
     7
 79
     5
170
     0
171
     0
290
     0
174
     0
 93
        1
 44
0.0
173
     0
291
     0
 45
0.0
  0
VISUALSTYLE
  5
256
102
{ACAD_REACTORS
330
37
102
}
102
{ACAD_XDICTIONARY
360
9D2
102
}
330
37
100
AcDbVisualStyle
  2
X-Ray
 70
    25
 71
     2
 72
     2
 73
     1
 90
        1
 40
0.5
 41
30.0
 62
     5
 63
     7
421
 16777215
 74
     1
 91
        0
 64
     7
 65
   257
 75
     1
175
     1
 42
1.0
 92
        8
 66
     7
 43
1.0
 76
     1
 77
     6
 78
     2
 67
     7
 79
     3
170
     0
171
     0
290
     0
174
     0
 93
       13
 44
0.0
173
     0
291
     0
 45
0.0
  0
DICTIONARYVAR
  5
23B
102
{ACAD_REACTORS
330
23A
102
}
330
23A
100
DictionaryVariables
280
     0
  1
1:1
  0
DICTIONARYVAR
  5
261
102
{ACAD_REACTORS
330
23A
102
}
330
23A
100
DictionaryVariables
280
     0
  1
Standard
  0
DICTIONARYVAR
  5
7DC
102
{ACAD_REACTORS
330
23A
102
}
330
23A
100
DictionaryVariables
280
     0
  1
0
  0
DICTIONARY
  5
9A2
330
259
100
AcDbDictionary
280
     1
281
     1
  3
ACAD_XREC_ROUNDTRIP
360
9A3
  0
DICTIONARY
  5
9A4
330
245
100
AcDbDictionary
280
     1
281
     1
  3
ACAD_XREC_ROUNDTRIP
360
9A5
  0
DICTIONARY
  5
9A6
330
248
100
AcDbDictionary
280
     1
281
     1
  3
ACAD_XREC_ROUNDTRIP
360
9A7
  0
DICTIONARY
  5
9A8
330
24C
100
AcDbDictionary
280
     1
281
     1
  3
ACAD_XREC_ROUNDTRIP
360
9A9
  0
DICTIONARY
  5
9AA
330
250
100
AcDbDictionary
280
     1
281
     1
  3
ACAD_XREC_ROUNDTRIP
360
9AB
  0
DICTIONARY
  5
9AC
330
24A
100
AcDbDictionary
280
     1
281
     1
  3
ACAD_XREC_ROUNDTRIP
360
9AD
  0
DICTIONARY
  5
9AE
330
24B
100
AcDbDictionary
280
     1
281
     1
  3
ACAD_XREC_ROUNDTRIP
360
9AF
  0
DICTIONARY
  5
9B0
330
253
100
AcDbDictionary
280
     1
281
     1
  3
ACAD_XREC_ROUNDTRIP
360
9B1
  0
DICTIONARY
  5
9B2
330
24F
100
AcDbDictionary
280
     1
281
     1
  3
ACAD_XREC_ROUNDTRIP
360
9B3
  0
DICTIONARY
  5
9B4
330
241
100
AcDbDictionary
280
     1
281
     1
  3
ACAD_XREC_ROUNDTRIP
360
9B5
  0
DICTIONARY
  5
9B6
330
242
100
AcDbDictionary
280
     1
281
     1
  3
ACAD_XREC_ROUNDTRIP
360
9B7
  0
DICTIONARY
  5
9B8
330
243
100
AcDbDictionary
280
     1
281
     1
  3
ACAD_XREC_ROUNDTRIP
360
9B9
  0
DICTIONARY
  5
9BA
330
244
100
AcDbDictionary
280
     1
281
     1
  3
ACAD_XREC_ROUNDTRIP
360
9BB
  0
DICTIONARY
  5
9BC
330
247
100
AcDbDictionary
280
     1
281
     1
  3
ACAD_XREC_ROUNDTRIP
360
9BD
  0
DICTIONARY
  5
9BE
330
251
100
AcDbDictionary
280
     1
281
     1
  3
ACAD_XREC_ROUNDTRIP
360
9BF
  0
DICTIONARY
  5
9C0
330
24E
100
AcDbDictionary
280
     1
281
     1
  3
ACAD_XREC_ROUNDTRIP
360
9C1
  0
DICTIONARY
  5
9C2
330
252
100
AcDbDictionary
280
     1
281
     1
  3
ACAD_XREC_ROUNDTRIP
360
9C3
  0
DICTIONARY
  5
9C4
330
249
100
AcDbDictionary
280
     1
281
     1
  3
ACAD_XREC_ROUNDTRIP
360
9C5
  0
DICTIONARY
  5
9C6
330
258
100
AcDbDictionary
280
     1
281
     1
  3
ACAD_XREC_ROUNDTRIP
360
9C7
  0
DICTIONARY
  5
9C8
330
257
100
AcDbDictionary
280
     1
281
     1
  3
ACAD_XREC_ROUNDTRIP
360
9C9
  0
DICTIONARY
  5
9CA
330
254
100
AcDbDictionary
280
     1
281
     1
  3
ACAD_XREC_ROUNDTRIP
360
9CB
  0
DICTIONARY
  5
9CC
330
255
100
AcDbDictionary
280
     1
281
     1
  3
ACAD_XREC_ROUNDTRIP
360
9CD
  0
DICTIONARY
  5
9CE
330
24D
100
AcDbDictionary
280
     1
281
     1
  3
ACAD_XREC_ROUNDTRIP
360
9CF
  0
DICTIONARY
  5
9D0
330
246
100
AcDbDictionary
280
     1
281
     1
  3
ACAD_XREC_ROUNDTRIP
360
9D1
  0
DICTIONARY
  5
9D2
330
256
100
AcDbDictionary
280
     1
281
     1
  3
ACAD_XREC_ROUNDTRIP
360
9D3
  0
XRECORD
  5
9A3
102
{ACAD_REACTORS
330
9A2
102
}
330
9A2
100
AcDbXrecord
280
     1
102
ACAD_ROUNDTRIP_2010_MLEADER_STYLE
  0
XRECORD
  5
9A5
102
{ACAD_REACTORS
330
9A4
102
}
330
9A4
100
AcDbXrecord
280
     1
102
RTVSPropertyOp0
 70
     1
102
RTVSPropertyOp1
 70
     1
102
RTVSPropertyOp2
 70
     1
102
RTVSPropertyOp3
 70
     1
102
RTVSPropertyOp4
 70
     1
102
RTVSPropertyOp5
 70
     1
102
RTVSPropertyOp6
 70
     1
102
RTVSPropertyOp7
 70
     1
102
RTVSPropertyOp8
 70
     1
102
RTVSPropertyOp9
 70
     1
102
RTVSPropertyOp10
 70
     1
102
RTVSPropertyOp11
 70
     1
102
RTVSPropertyOp12
 70
     1
102
RTVSPropertyOp13
 70
     1
102
RTVSPropertyOp14
 70
     1
102
RTVSPropertyOp15
 70
     1
102
RTVSPropertyOp16
 70
     1
102
RTVSPropertyOp17
 70
     1
102
RTVSPropertyOp18
 70
     1
102
RTVSPropertyOp19
 70
     1
102
RTVSPropertyOp20
 70
     1
102
RTVSPropertyOp21
 70
     1
102
RTVSPropertyOp22
 70
     1
102
RTVSPropertyOp23
 70
     1
102
RTVSPropertyOp24
 70
     1
102
RTVSPropertyOp25
 70
     1
102
RTVSPropertyOp26
 70
     1
102
RTVSPropertyOp27
 70
     1
102
RTVSPropertyOp28
 70
     1
102
RTVSPropertyOp29
 70
     1
102
RTVSPropertyOp30
 70
     1
102
RTVSPropertyOp31
 70
     1
102
RTVSPropertyOp32
 70
     1
102
RTVSPropertyOp33
 70
     1
102
RTVSPropertyOp34
 70
     1
102
RTVSPropertyOp35
 70
     1
102
RTVSPropertyOp36
 70
     1
102
RTVSPropertyOp37
 70
     1
102
RTVSPropertyOp38
 70
     1
102
RTVSPropertyOp39
 70
     1
102
RTVSPropertyOp40
 70
     1
102
RTVSPropertyOp41
 70
     1
102
RTVSPropertyOp42
 70
     1
102
RTVSPropertyOp43
 70
     1
102
RTVSPropertyOp44
 70
     1
102
RTVSPropertyOp45
 70
     1
102
RTVSPropertyOp46
 70
     1
102
RTVSPropertyOp47
 70
     1
102
RTVSPropertyOp48
 70
     1
102
RTVSPropertyOp49
 70
     1
102
RTVSPropertyOp50
 70
     1
102
RTVSPropertyOp51
 70
     0
102
RTVSPropertyOp52
 70
     0
102
RTVSPropertyOp53
 70
     1
102
RTVSPropertyOp54
 70
     1
102
RTVSPropertyOp55
 70
     1
102
RTVSPropertyOp56
 70
     1
102
RTVSPropertyOp57
 70
     1
102
RTVSPost2010Prop28
280
     1
102
RTVSPost2010PropOp28
 70
     1
102
RTVSPost2010Prop29
280
     1
102
RTVSPost2010PropOp29
 70
     1
102
RTVSPost2010Prop30
280
     0
102
RTVSPost2010PropOp30
 70
     1
102
RTVSPost2010Prop31
280
     0
102
RTVSPost2010PropOp31
 70
     1
102
RTVSPost2010Prop32
280
     0
102
RTVSPost2010PropOp32
 70
     1
102
RTVSPost2010Prop33
280
     0
102
RTVSPost2010PropOp33
 70
     1
102
RTVSPost2010Prop34
280
     0
102
RTVSPost2010PropOp34
 70
     1
102
RTVSPost2010Prop35
280
     0
102
RTVSPost2010PropOp35
 70
     1
102
RTVSPost2010Prop36
280
     0
102
RTVSPost2010PropOp36
 70
     1
102
RTVSPost2010Prop37
 90
       50
102
RTVSPost2010PropOp37
 70
     1
102
RTVSPost2010Prop38
140
0.0
102
RTVSPost2010PropOp38
 70
     1
102
RTVSPost2010Prop39
140
1.0
102
RTVSPost2010PropOp39
 70
     1
102
RTVSPost2010Prop40
 90
        0
102
RTVSPost2010PropOp40
 70
     1
102
RTVSPost2010Prop41ColorIndex
 90
       18
102
RTVSPost2010Prop41ColorRGB
 90
        0
102
RTVSPost2010PropOp41
 70
     1
102
RTVSPost2010Prop42
 90
       50
102
RTVSPost2010PropOp42
 70
     1
102
RTVSPost2010Prop43
 90
        3
102
RTVSPost2010PropOp43
 70
     1
102
RTVSPost2010Prop44ColorIndex
 90
        5
102
RTVSPost2010Prop44ColorRGB
 90
      255
102
RTVSPost2010PropOp44
 70
     1
102
RTVSPost2010Prop45
280
     0
102
RTVSPost2010PropOp45
 70
     1
102
RTVSPost2010Prop46
 90
       50
102
RTVSPost2010PropOp46
 70
     1
102
RTVSPost2010Prop47
 90
       50
102
RTVSPost2010PropOp47
 70
     1
102
RTVSPost2010Prop48
 90
       50
102
RTVSPost2010PropOp48
 70
     1
102
RTVSPost2010Prop49
280
     0
102
RTVSPost2010PropOp49
 70
     1
102
RTVSPost2010Prop50
 90
       50
102
RTVSPost2010PropOp50
 70
     1
102
RTVSPost2010Prop51ColorIndex
 90
      256
102
RTVSPost2010Prop51ColorRGB
 90
-16777216
102
RTVSPost2010PropOp51
 70
     0
102
RTVSPost2010Prop52
140
1.0
102
RTVSPost2010PropOp52
 70
     0
102
RTVSPost2010Prop53
 90
        2
102
RTVSPost2010PropOp53
 70
     1
102
RTVSPost2010Prop54
  1
strokes_ogs.tif
102
RTVSPost2010PropOp54
 70
     1
102
RTVSPost2010Prop55
280
     0
102
RTVSPost2010PropOp55
 70
     1
102
RTVSPost2010Prop56
140
1.0
102
RTVSPost2010PropOp56
 70
     1
102
RTVSPost2010Prop57
140
1.0
102
RTVSPost2010PropOp57
 70
     1
  0
XRECORD
  5
9A7
102
{ACAD_REACTORS
330
9A6
102
}
330
9A6
100
AcDbXrecord
280
     1
102
RTVSPropertyOp0
 70
     1
102
RTVSPropertyOp1
 70
     1
102
RTVSPropertyOp2
 70
     1
102
RTVSPropertyOp3
 70
     1
102
RTVSPropertyOp4
 70
     1
102
RTVSPropertyOp5
 70
     1
102
RTVSPropertyOp6
 70
     1
102
RTVSPropertyOp7
 70
     1
102
RTVSPropertyOp8
 70
     1
102
RTVSPropertyOp9
 70
     1
102
RTVSPropertyOp10
 70
     1
102
RTVSPropertyOp11
 70
     1
102
RTVSPropertyOp12
 70
     1
102
RTVSPropertyOp13
 70
     1
102
RTVSPropertyOp14
 70
     1
102
RTVSPropertyOp15
 70
     1
102
RTVSPropertyOp16
 70
     1
102
RTVSPropertyOp17
 70
     1
102
RTVSPropertyOp18
 70
     1
102
RTVSPropertyOp19
 70
     1
102
RTVSPropertyOp20
 70
     1
102
RTVSPropertyOp21
 70
     1
102
RTVSPropertyOp22
 70
     1
102
RTVSPropertyOp23
 70
     1
102
RTVSPropertyOp24
 70
     1
102
RTVSPropertyOp25
 70
     1
102
RTVSPropertyOp26
 70
     1
102
RTVSPropertyOp27
 70
     1
102
RTVSPropertyOp28
 70
     1
102
RTVSPropertyOp29
 70
     1
102
RTVSPropertyOp30
 70
     1
102
RTVSPropertyOp31
 70
     1
102
RTVSPropertyOp32
 70
     1
102
RTVSPropertyOp33
 70
     1
102
RTVSPropertyOp34
 70
     1
102
RTVSPropertyOp35
 70
     1
102
RTVSPropertyOp36
 70
     1
102
RTVSPropertyOp37
 70
     1
102
RTVSPropertyOp38
 70
     1
102
RTVSPropertyOp39
 70
     1
102
RTVSPropertyOp40
 70
     1
102
RTVSPropertyOp41
 70
     1
102
RTVSPropertyOp42
 70
     1
102
RTVSPropertyOp43
 70
     1
102
RTVSPropertyOp44
 70
     1
102
RTVSPropertyOp45
 70
     1
102
RTVSPropertyOp46
 70
     1
102
RTVSPropertyOp47
 70
     1
102
RTVSPropertyOp48
 70
     1
102
RTVSPropertyOp49
 70
     1
102
RTVSPropertyOp50
 70
     1
102
RTVSPropertyOp51
 70
     0
102
RTVSPropertyOp52
 70
     0
102
RTVSPropertyOp53
 70
     1
102
RTVSPropertyOp54
 70
     1
102
RTVSPropertyOp55
 70
     1
102
RTVSPropertyOp56
 70
     1
102
RTVSPropertyOp57
 70
     1
102
RTVSPost2010Prop28
280
     0
102
RTVSPost2010PropOp28
 70
     1
102
RTVSPost2010Prop29
280
     1
102
RTVSPost2010PropOp29
 70
     1
102
RTVSPost2010Prop30
280
     1
102
RTVSPost2010PropOp30
 70
     1
102
RTVSPost2010Prop31
280
     0
102
RTVSPost2010PropOp31
 70
     1
102
RTVSPost2010Prop32
280
     0
102
RTVSPost2010PropOp32
 70
     1
102
RTVSPost2010Prop33
280
     0
102
RTVSPost2010PropOp33
 70
     1
102
RTVSPost2010Prop34
280
     0
102
RTVSPost2010PropOp34
 70
     1
102
RTVSPost2010Prop35
280
     0
102
RTVSPost2010PropOp35
 70
     1
102
RTVSPost2010Prop36
280
     0
102
RTVSPost2010PropOp36
 70
     1
102
RTVSPost2010Prop37
 90
       50
102
RTVSPost2010PropOp37
 70
     1
102
RTVSPost2010Prop38
140
0.0
102
RTVSPost2010PropOp38
 70
     1
102
RTVSPost2010Prop39
140
1.0
102
RTVSPost2010PropOp39
 70
     1
102
RTVSPost2010Prop40
 90
        0
102
RTVSPost2010PropOp40
 70
     1
102
RTVSPost2010Prop41ColorIndex
 90
       18
102
RTVSPost2010Prop41ColorRGB
 90
        0
102
RTVSPost2010PropOp41
 70
     1
102
RTVSPost2010Prop42
 90
       50
102
RTVSPost2010PropOp42
 70
     1
102
RTVSPost2010Prop43
 90
        3
102
RTVSPost2010PropOp43
 70
     1
102
RTVSPost2010Prop44ColorIndex
 90
        5
102
RTVSPost2010Prop44ColorRGB
 90
      255
102
RTVSPost2010PropOp44
 70
     1
102
RTVSPost2010Prop45
280
     0
102
RTVSPost2010PropOp45
 70
     1
102
RTVSPost2010Prop46
 90
       50
102
RTVSPost2010PropOp46
 70
     1
102
RTVSPost2010Prop47
 90
       50
102
RTVSPost2010PropOp47
 70
     1
102
RTVSPost2010Prop48
 90
       50
102
RTVSPost2010PropOp48
 70
     1
102
RTVSPost2010Prop49
280
     0
102
RTVSPost2010PropOp49
 70
     1
102
RTVSPost2010Prop50
 90
       50
102
RTVSPost2010PropOp50
 70
     1
102
RTVSPost2010Prop51ColorIndex
 90
      256
102
RTVSPost2010Prop51ColorRGB
 90
-16777216
102
RTVSPost2010PropOp51
 70
     0
102
RTVSPost2010Prop52
140
1.0
102
RTVSPost2010PropOp52
 70
     0
102
RTVSPost2010Prop53
 90
        2
102
RTVSPost2010PropOp53
 70
     1
102
RTVSPost2010Prop54
  1
strokes_ogs.tif
102
RTVSPost2010PropOp54
 70
     1
102
RTVSPost2010Prop55
280
     0
102
RTVSPost2010PropOp55
 70
     1
102
RTVSPost2010Prop56
140
1.0
102
RTVSPost2010PropOp56
 70
     1
102
RTVSPost2010Prop57
140
1.0
102
RTVSPost2010PropOp57
 70
     1
  0
XRECORD
  5
9A9
102
{ACAD_REACTORS
330
9A8
102
}
330
9A8
100
AcDbXrecord
280
     1
102
RTVSPropertyOp0
 70
     1
102
RTVSPropertyOp1
 70
     1
102
RTVSPropertyOp2
 70
     1
102
RTVSPropertyOp3
 70
     1
102
RTVSPropertyOp4
 70
     1
102
RTVSPropertyOp5
 70
     1
102
RTVSPropertyOp6
 70
     1
102
RTVSPropertyOp7
 70
     1
102
RTVSPropertyOp8
 70
     1
102
RTVSPropertyOp9
 70
     1
102
RTVSPropertyOp10
 70
     1
102
RTVSPropertyOp11
 70
     1
102
RTVSPropertyOp12
 70
     1
102
RTVSPropertyOp13
 70
     1
102
RTVSPropertyOp14
 70
     1
102
RTVSPropertyOp15
 70
     1
102
RTVSPropertyOp16
 70
     1
102
RTVSPropertyOp17
 70
     1
102
RTVSPropertyOp18
 70
     1
102
RTVSPropertyOp19
 70
     1
102
RTVSPropertyOp20
 70
     1
102
RTVSPropertyOp21
 70
     1
102
RTVSPropertyOp22
 70
     1
102
RTVSPropertyOp23
 70
     1
102
RTVSPropertyOp24
 70
     1
102
RTVSPropertyOp25
 70
     1
102
RTVSPropertyOp26
 70
     1
102
RTVSPropertyOp27
 70
     1
102
RTVSPropertyOp28
 70
     1
102
RTVSPropertyOp29
 70
     1
102
RTVSPropertyOp30
 70
     1
102
RTVSPropertyOp31
 70
     1
102
RTVSPropertyOp32
 70
     1
102
RTVSPropertyOp33
 70
     1
102
RTVSPropertyOp34
 70
     1
102
RTVSPropertyOp35
 70
     1
102
RTVSPropertyOp36
 70
     1
102
RTVSPropertyOp37
 70
     1
102
RTVSPropertyOp38
 70
     1
102
RTVSPropertyOp39
 70
     1
102
RTVSPropertyOp40
 70
     1
102
RTVSPropertyOp41
 70
     1
102
RTVSPropertyOp42
 70
     1
102
RTVSPropertyOp43
 70
     1
102
RTVSPropertyOp44
 70
     1
102
RTVSPropertyOp45
 70
     1
102
RTVSPropertyOp46
 70
     1
102
RTVSPropertyOp47
 70
     1
102
RTVSPropertyOp48
 70
     1
102
RTVSPropertyOp49
 70
     1
102
RTVSPropertyOp50
 70
     1
102
RTVSPropertyOp51
 70
     0
102
RTVSPropertyOp52
 70
     0
102
RTVSPropertyOp53
 70
     1
102
RTVSPropertyOp54
 70
     1
102
RTVSPropertyOp55
 70
     1
102
RTVSPropertyOp56
 70
     1
102
RTVSPropertyOp57
 70
     1
102
RTVSPost2010Prop28
280
     0
102
RTVSPost2010PropOp28
 70
     1
102
RTVSPost2010Prop29
280
     1
102
RTVSPost2010PropOp29
 70
     1
102
RTVSPost2010Prop30
280
     1
102
RTVSPost2010PropOp30
 70
     1
102
RTVSPost2010Prop31
280
     0
102
RTVSPost2010PropOp31
 70
     1
102
RTVSPost2010Prop32
280
     0
102
RTVSPost2010PropOp32
 70
     1
102
RTVSPost2010Prop33
280
     0
102
RTVSPost2010PropOp33
 70
     1
102
RTVSPost2010Prop34
280
     0
102
RTVSPost2010PropOp34
 70
     1
102
RTVSPost2010Prop35
280
     0
102
RTVSPost2010PropOp35
 70
     1
102
RTVSPost2010Prop36
280
     0
102
RTVSPost2010PropOp36
 70
     1
102
RTVSPost2010Prop37
 90
       50
102
RTVSPost2010PropOp37
 70
     1
102
RTVSPost2010Prop38
140
0.0
102
RTVSPost2010PropOp38
 70
     1
102
RTVSPost2010Prop39
140
1.0
102
RTVSPost2010PropOp39
 70
     1
102
RTVSPost2010Prop40
 90
        0
102
RTVSPost2010PropOp40
 70
     1
102
RTVSPost2010Prop41ColorIndex
 90
       18
102
RTVSPost2010Prop41ColorRGB
 90
        0
102
RTVSPost2010PropOp41
 70
     1
102
RTVSPost2010Prop42
 90
       50
102
RTVSPost2010PropOp42
 70
     1
102
RTVSPost2010Prop43
 90
        3
102
RTVSPost2010PropOp43
 70
     1
102
RTVSPost2010Prop44ColorIndex
 90
        5
102
RTVSPost2010Prop44ColorRGB
 90
      255
102
RTVSPost2010PropOp44
 70
     1
102
RTVSPost2010Prop45
280
     0
102
RTVSPost2010PropOp45
 70
     1
102
RTVSPost2010Prop46
 90
       50
102
RTVSPost2010PropOp46
 70
     1
102
RTVSPost2010Prop47
 90
       50
102
RTVSPost2010PropOp47
 70
     1
102
RTVSPost2010Prop48
 90
       50
102
RTVSPost2010PropOp48
 70
     1
102
RTVSPost2010Prop49
280
     0
102
RTVSPost2010PropOp49
 70
     1
102
RTVSPost2010Prop50
 90
       50
102
RTVSPost2010PropOp50
 70
     1
102
RTVSPost2010Prop51ColorIndex
 90
      256
102
RTVSPost2010Prop51ColorRGB
 90
-16777216
102
RTVSPost2010PropOp51
 70
     0
102
RTVSPost2010Prop52
140
1.0
102
RTVSPost2010PropOp52
 70
     0
102
RTVSPost2010Prop53
 90
        2
102
RTVSPost2010PropOp53
 70
     1
102
RTVSPost2010Prop54
  1
strokes_ogs.tif
102
RTVSPost2010PropOp54
 70
     1
102
RTVSPost2010Prop55
280
     0
102
RTVSPost2010PropOp55
 70
     1
102
RTVSPost2010Prop56
140
1.0
102
RTVSPost2010PropOp56
 70
     1
102
RTVSPost2010Prop57
140
1.0
102
RTVSPost2010PropOp57
 70
     1
  0
XRECORD
  5
9AB
102
{ACAD_REACTORS
330
9AA
102
}
330
9AA
100
AcDbXrecord
280
     1
102
RTVSPropertyOp0
 70
     1
102
RTVSPropertyOp1
 70
     1
102
RTVSPropertyOp2
 70
     1
102
RTVSPropertyOp3
 70
     1
102
RTVSPropertyOp4
 70
     1
102
RTVSPropertyOp5
 70
     1
102
RTVSPropertyOp6
 70
     1
102
RTVSPropertyOp7
 70
     1
102
RTVSPropertyOp8
 70
     1
102
RTVSPropertyOp9
 70
     1
102
RTVSPropertyOp10
 70
     1
102
RTVSPropertyOp11
 70
     1
102
RTVSPropertyOp12
 70
     1
102
RTVSPropertyOp13
 70
     1
102
RTVSPropertyOp14
 70
     1
102
RTVSPropertyOp15
 70
     1
102
RTVSPropertyOp16
 70
     1
102
RTVSPropertyOp17
 70
     1
102
RTVSPropertyOp18
 70
     1
102
RTVSPropertyOp19
 70
     1
102
RTVSPropertyOp20
 70
     1
102
RTVSPropertyOp21
 70
     1
102
RTVSPropertyOp22
 70
     1
102
RTVSPropertyOp23
 70
     1
102
RTVSPropertyOp24
 70
     1
102
RTVSPropertyOp25
 70
     1
102
RTVSPropertyOp26
 70
     1
102
RTVSPropertyOp27
 70
     1
102
RTVSPropertyOp28
 70
     1
102
RTVSPropertyOp29
 70
     1
102
RTVSPropertyOp30
 70
     1
102
RTVSPropertyOp31
 70
     1
102
RTVSPropertyOp32
 70
     1
102
RTVSPropertyOp33
 70
     1
102
RTVSPropertyOp34
 70
     1
102
RTVSPropertyOp35
 70
     1
102
RTVSPropertyOp36
 70
     1
102
RTVSPropertyOp37
 70
     1
102
RTVSPropertyOp38
 70
     1
102
RTVSPropertyOp39
 70
     1
102
RTVSPropertyOp40
 70
     1
102
RTVSPropertyOp41
 70
     1
102
RTVSPropertyOp42
 70
     1
102
RTVSPropertyOp43
 70
     1
102
RTVSPropertyOp44
 70
     1
102
RTVSPropertyOp45
 70
     1
102
RTVSPropertyOp46
 70
     1
102
RTVSPropertyOp47
 70
     1
102
RTVSPropertyOp48
 70
     1
102
RTVSPropertyOp49
 70
     1
102
RTVSPropertyOp50
 70
     1
102
RTVSPropertyOp51
 70
     0
102
RTVSPropertyOp52
 70
     0
102
RTVSPropertyOp53
 70
     1
102
RTVSPropertyOp54
 70
     1
102
RTVSPropertyOp55
 70
     1
102
RTVSPropertyOp56
 70
     1
102
RTVSPropertyOp57
 70
     1
102
RTVSPost2010Prop28
280
     0
102
RTVSPost2010PropOp28
 70
     1
102
RTVSPost2010Prop29
280
     1
102
RTVSPost2010PropOp29
 70
     1
102
RTVSPost2010Prop30
280
     1
102
RTVSPost2010PropOp30
 70
     1
102
RTVSPost2010Prop31
280
     0
102
RTVSPost2010PropOp31
 70
     1
102
RTVSPost2010Prop32
280
     0
102
RTVSPost2010PropOp32
 70
     1
102
RTVSPost2010Prop33
280
     0
102
RTVSPost2010PropOp33
 70
     1
102
RTVSPost2010Prop34
280
     0
102
RTVSPost2010PropOp34
 70
     1
102
RTVSPost2010Prop35
280
     0
102
RTVSPost2010PropOp35
 70
     1
102
RTVSPost2010Prop36
280
     0
102
RTVSPost2010PropOp36
 70
     1
102
RTVSPost2010Prop37
 90
       50
102
RTVSPost2010PropOp37
 70
     1
102
RTVSPost2010Prop38
140
0.0
102
RTVSPost2010PropOp38
 70
     1
102
RTVSPost2010Prop39
140
1.0
102
RTVSPost2010PropOp39
 70
     1
102
RTVSPost2010Prop40
 90
        0
102
RTVSPost2010PropOp40
 70
     1
102
RTVSPost2010Prop41ColorIndex
 90
       18
102
RTVSPost2010Prop41ColorRGB
 90
        0
102
RTVSPost2010PropOp41
 70
     1
102
RTVSPost2010Prop42
 90
       50
102
RTVSPost2010PropOp42
 70
     1
102
RTVSPost2010Prop43
 90
        3
102
RTVSPost2010PropOp43
 70
     1
102
RTVSPost2010Prop44ColorIndex
 90
        5
102
RTVSPost2010Prop44ColorRGB
 90
      255
102
RTVSPost2010PropOp44
 70
     1
102
RTVSPost2010Prop45
280
     0
102
RTVSPost2010PropOp45
 70
     1
102
RTVSPost2010Prop46
 90
       50
102
RTVSPost2010PropOp46
 70
     1
102
RTVSPost2010Prop47
 90
       50
102
RTVSPost2010PropOp47
 70
     1
102
RTVSPost2010Prop48
 90
       50
102
RTVSPost2010PropOp48
 70
     1
102
RTVSPost2010Prop49
280
     0
102
RTVSPost2010PropOp49
 70
     1
102
RTVSPost2010Prop50
 90
       50
102
RTVSPost2010PropOp50
 70
     1
102
RTVSPost2010Prop51ColorIndex
 90
      256
102
RTVSPost2010Prop51ColorRGB
 90
-16777216
102
RTVSPost2010PropOp51
 70
     0
102
RTVSPost2010Prop52
140
1.0
102
RTVSPost2010PropOp52
 70
     0
102
RTVSPost2010Prop53
 90
        2
102
RTVSPost2010PropOp53
 70
     1
102
RTVSPost2010Prop54
  1
strokes_ogs.tif
102
RTVSPost2010PropOp54
 70
     1
102
RTVSPost2010Prop55
280
     0
102
RTVSPost2010PropOp55
 70
     1
102
RTVSPost2010Prop56
140
1.0
102
RTVSPost2010PropOp56
 70
     1
102
RTVSPost2010Prop57
140
1.0
102
RTVSPost2010PropOp57
 70
     1
  0
XRECORD
  5
9AD
102
{ACAD_REACTORS
330
9AC
102
}
330
9AC
100
AcDbXrecord
280
     1
102
RTVSPropertyOp0
 70
     1
102
RTVSPropertyOp1
 70
     1
102
RTVSPropertyOp2
 70
     1
102
RTVSPropertyOp3
 70
     1
102
RTVSPropertyOp4
 70
     1
102
RTVSPropertyOp5
 70
     1
102
RTVSPropertyOp6
 70
     1
102
RTVSPropertyOp7
 70
     1
102
RTVSPropertyOp8
 70
     1
102
RTVSPropertyOp9
 70
     1
102
RTVSPropertyOp10
 70
     1
102
RTVSPropertyOp11
 70
     1
102
RTVSPropertyOp12
 70
     1
102
RTVSPropertyOp13
 70
     1
102
RTVSPropertyOp14
 70
     1
102
RTVSPropertyOp15
 70
     1
102
RTVSPropertyOp16
 70
     1
102
RTVSPropertyOp17
 70
     1
102
RTVSPropertyOp18
 70
     1
102
RTVSPropertyOp19
 70
     1
102
RTVSPropertyOp20
 70
     1
102
RTVSPropertyOp21
 70
     1
102
RTVSPropertyOp22
 70
     1
102
RTVSPropertyOp23
 70
     1
102
RTVSPropertyOp24
 70
     1
102
RTVSPropertyOp25
 70
     1
102
RTVSPropertyOp26
 70
     1
102
RTVSPropertyOp27
 70
     1
102
RTVSPropertyOp28
 70
     1
102
RTVSPropertyOp29
 70
     1
102
RTVSPropertyOp30
 70
     1
102
RTVSPropertyOp31
 70
     1
102
RTVSPropertyOp32
 70
     1
102
RTVSPropertyOp33
 70
     1
102
RTVSPropertyOp34
 70
     1
102
RTVSPropertyOp35
 70
     1
102
RTVSPropertyOp36
 70
     1
102
RTVSPropertyOp37
 70
     1
102
RTVSPropertyOp38
 70
     1
102
RTVSPropertyOp39
 70
     1
102
RTVSPropertyOp40
 70
     1
102
RTVSPropertyOp41
 70
     1
102
RTVSPropertyOp42
 70
     1
102
RTVSPropertyOp43
 70
     1
102
RTVSPropertyOp44
 70
     1
102
RTVSPropertyOp45
 70
     1
102
RTVSPropertyOp46
 70
     1
102
RTVSPropertyOp47
 70
     1
102
RTVSPropertyOp48
 70
     1
102
RTVSPropertyOp49
 70
     1
102
RTVSPropertyOp50
 70
     1
102
RTVSPropertyOp51
 70
     0
102
RTVSPropertyOp52
 70
     0
102
RTVSPropertyOp53
 70
     1
102
RTVSPropertyOp54
 70
     1
102
RTVSPropertyOp55
 70
     1
102
RTVSPropertyOp56
 70
     1
102
RTVSPropertyOp57
 70
     1
102
RTVSPost2010Prop28
280
     0
102
RTVSPost2010PropOp28
 70
     1
102
RTVSPost2010Prop29
280
     1
102
RTVSPost2010PropOp29
 70
     1
102
RTVSPost2010Prop30
280
     1
102
RTVSPost2010PropOp30
 70
     1
102
RTVSPost2010Prop31
280
     0
102
RTVSPost2010PropOp31
 70
     1
102
RTVSPost2010Prop32
280
     0
102
RTVSPost2010PropOp32
 70
     1
102
RTVSPost2010Prop33
280
     0
102
RTVSPost2010PropOp33
 70
     1
102
RTVSPost2010Prop34
280
     0
102
RTVSPost2010PropOp34
 70
     1
102
RTVSPost2010Prop35
280
     0
102
RTVSPost2010PropOp35
 70
     1
102
RTVSPost2010Prop36
280
     0
102
RTVSPost2010PropOp36
 70
     1
102
RTVSPost2010Prop37
 90
       50
102
RTVSPost2010PropOp37
 70
     1
102
RTVSPost2010Prop38
140
0.0
102
RTVSPost2010PropOp38
 70
     1
102
RTVSPost2010Prop39
140
1.0
102
RTVSPost2010PropOp39
 70
     1
102
RTVSPost2010Prop40
 90
        0
102
RTVSPost2010PropOp40
 70
     1
102
RTVSPost2010Prop41ColorIndex
 90
       18
102
RTVSPost2010Prop41ColorRGB
 90
        0
102
RTVSPost2010PropOp41
 70
     1
102
RTVSPost2010Prop42
 90
       50
102
RTVSPost2010PropOp42
 70
     1
102
RTVSPost2010Prop43
 90
        3
102
RTVSPost2010PropOp43
 70
     1
102
RTVSPost2010Prop44ColorIndex
 90
        5
102
RTVSPost2010Prop44ColorRGB
 90
      255
102
RTVSPost2010PropOp44
 70
     1
102
RTVSPost2010Prop45
280
     0
102
RTVSPost2010PropOp45
 70
     1
102
RTVSPost2010Prop46
 90
       50
102
RTVSPost2010PropOp46
 70
     1
102
RTVSPost2010Prop47
 90
       50
102
RTVSPost2010PropOp47
 70
     1
102
RTVSPost2010Prop48
 90
       50
102
RTVSPost2010PropOp48
 70
     1
102
RTVSPost2010Prop49
280
     0
102
RTVSPost2010PropOp49
 70
     1
102
RTVSPost2010Prop50
 90
       50
102
RTVSPost2010PropOp50
 70
     1
102
RTVSPost2010Prop51ColorIndex
 90
      256
102
RTVSPost2010Prop51ColorRGB
 90
-16777216
102
RTVSPost2010PropOp51
 70
     0
102
RTVSPost2010Prop52
140
1.0
102
RTVSPost2010PropOp52
 70
     0
102
RTVSPost2010Prop53
 90
        2
102
RTVSPost2010PropOp53
 70
     1
102
RTVSPost2010Prop54
  1
strokes_ogs.tif
102
RTVSPost2010PropOp54
 70
     1
102
RTVSPost2010Prop55
280
     0
102
RTVSPost2010PropOp55
 70
     1
102
RTVSPost2010Prop56
140
1.0
102
RTVSPost2010PropOp56
 70
     1
102
RTVSPost2010Prop57
140
1.0
102
RTVSPost2010PropOp57
 70
     1
  0
XRECORD
  5
9AF
102
{ACAD_REACTORS
330
9AE
102
}
330
9AE
100
AcDbXrecord
280
     1
102
RTVSPropertyOp0
 70
     1
102
RTVSPropertyOp1
 70
     1
102
RTVSPropertyOp2
 70
     1
102
RTVSPropertyOp3
 70
     1
102
RTVSPropertyOp4
 70
     1
102
RTVSPropertyOp5
 70
     1
102
RTVSPropertyOp6
 70
     1
102
RTVSPropertyOp7
 70
     1
102
RTVSPropertyOp8
 70
     1
102
RTVSPropertyOp9
 70
     1
102
RTVSPropertyOp10
 70
     1
102
RTVSPropertyOp11
 70
     1
102
RTVSPropertyOp12
 70
     1
102
RTVSPropertyOp13
 70
     1
102
RTVSPropertyOp14
 70
     1
102
RTVSPropertyOp15
 70
     1
102
RTVSPropertyOp16
 70
     1
102
RTVSPropertyOp17
 70
     1
102
RTVSPropertyOp18
 70
     1
102
RTVSPropertyOp19
 70
     1
102
RTVSPropertyOp20
 70
     1
102
RTVSPropertyOp21
 70
     1
102
RTVSPropertyOp22
 70
     1
102
RTVSPropertyOp23
 70
     1
102
RTVSPropertyOp24
 70
     1
102
RTVSPropertyOp25
 70
     1
102
RTVSPropertyOp26
 70
     1
102
RTVSPropertyOp27
 70
     1
102
RTVSPropertyOp28
 70
     1
102
RTVSPropertyOp29
 70
     1
102
RTVSPropertyOp30
 70
     1
102
RTVSPropertyOp31
 70
     1
102
RTVSPropertyOp32
 70
     1
102
RTVSPropertyOp33
 70
     1
102
RTVSPropertyOp34
 70
     1
102
RTVSPropertyOp35
 70
     1
102
RTVSPropertyOp36
 70
     1
102
RTVSPropertyOp37
 70
     1
102
RTVSPropertyOp38
 70
     1
102
RTVSPropertyOp39
 70
     1
102
RTVSPropertyOp40
 70
     1
102
RTVSPropertyOp41
 70
     1
102
RTVSPropertyOp42
 70
     1
102
RTVSPropertyOp43
 70
     1
102
RTVSPropertyOp44
 70
     1
102
RTVSPropertyOp45
 70
     1
102
RTVSPropertyOp46
 70
     1
102
RTVSPropertyOp47
 70
     1
102
RTVSPropertyOp48
 70
     1
102
RTVSPropertyOp49
 70
     1
102
RTVSPropertyOp50
 70
     1
102
RTVSPropertyOp51
 70
     0
102
RTVSPropertyOp52
 70
     0
102
RTVSPropertyOp53
 70
     1
102
RTVSPropertyOp54
 70
     1
102
RTVSPropertyOp55
 70
     1
102
RTVSPropertyOp56
 70
     1
102
RTVSPropertyOp57
 70
     1
102
RTVSPost2010Prop28
280
     0
102
RTVSPost2010PropOp28
 70
     1
102
RTVSPost2010Prop29
280
     1
102
RTVSPost2010PropOp29
 70
     1
102
RTVSPost2010Prop30
280
     1
102
RTVSPost2010PropOp30
 70
     1
102
RTVSPost2010Prop31
280
     0
102
RTVSPost2010PropOp31
 70
     1
102
RTVSPost2010Prop32
280
     0
102
RTVSPost2010PropOp32
 70
     1
102
RTVSPost2010Prop33
280
     0
102
RTVSPost2010PropOp33
 70
     1
102
RTVSPost2010Prop34
280
     0
102
RTVSPost2010PropOp34
 70
     1
102
RTVSPost2010Prop35
280
     0
102
RTVSPost2010PropOp35
 70
     1
102
RTVSPost2010Prop36
280
     0
102
RTVSPost2010PropOp36
 70
     1
102
RTVSPost2010Prop37
 90
       50
102
RTVSPost2010PropOp37
 70
     1
102
RTVSPost2010Prop38
140
0.0
102
RTVSPost2010PropOp38
 70
     1
102
RTVSPost2010Prop39
140
1.0
102
RTVSPost2010PropOp39
 70
     1
102
RTVSPost2010Prop40
 90
        0
102
RTVSPost2010PropOp40
 70
     1
102
RTVSPost2010Prop41ColorIndex
 90
       18
102
RTVSPost2010Prop41ColorRGB
 90
        0
102
RTVSPost2010PropOp41
 70
     1
102
RTVSPost2010Prop42
 90
       50
102
RTVSPost2010PropOp42
 70
     1
102
RTVSPost2010Prop43
 90
        3
102
RTVSPost2010PropOp43
 70
     1
102
RTVSPost2010Prop44ColorIndex
 90
        5
102
RTVSPost2010Prop44ColorRGB
 90
      255
102
RTVSPost2010PropOp44
 70
     1
102
RTVSPost2010Prop45
280
     0
102
RTVSPost2010PropOp45
 70
     1
102
RTVSPost2010Prop46
 90
       50
102
RTVSPost2010PropOp46
 70
     1
102
RTVSPost2010Prop47
 90
       50
102
RTVSPost2010PropOp47
 70
     1
102
RTVSPost2010Prop48
 90
       50
102
RTVSPost2010PropOp48
 70
     1
102
RTVSPost2010Prop49
280
     0
102
RTVSPost2010PropOp49
 70
     1
102
RTVSPost2010Prop50
 90
       50
102
RTVSPost2010PropOp50
 70
     1
102
RTVSPost2010Prop51ColorIndex
 90
      256
102
RTVSPost2010Prop51ColorRGB
 90
-16777216
102
RTVSPost2010PropOp51
 70
     0
102
RTVSPost2010Prop52
140
1.0
102
RTVSPost2010PropOp52
 70
     0
102
RTVSPost2010Prop53
 90
        2
102
RTVSPost2010PropOp53
 70
     1
102
RTVSPost2010Prop54
  1
strokes_ogs.tif
102
RTVSPost2010PropOp54
 70
     1
102
RTVSPost2010Prop55
280
     0
102
RTVSPost2010PropOp55
 70
     1
102
RTVSPost2010Prop56
140
1.0
102
RTVSPost2010PropOp56
 70
     1
102
RTVSPost2010Prop57
140
1.0
102
RTVSPost2010PropOp57
 70
     1
  0
XRECORD
  5
9B1
102
{ACAD_REACTORS
330
9B0
102
}
330
9B0
100
AcDbXrecord
280
     1
102
RTVSPropertyOp0
 70
     0
102
RTVSPropertyOp1
 70
     0
102
RTVSPropertyOp2
 70
     0
102
RTVSPropertyOp3
 70
     0
102
RTVSPropertyOp4
 70
     0
102
RTVSPropertyOp5
 70
     0
102
RTVSPropertyOp6
 70
     0
102
RTVSPropertyOp7
 70
     0
102
RTVSPropertyOp8
 70
     0
102
RTVSPropertyOp9
 70
     0
102
RTVSPropertyOp10
 70
     0
102
RTVSPropertyOp11
 70
     0
102
RTVSPropertyOp12
 70
     0
102
RTVSPropertyOp13
 70
     0
102
RTVSPropertyOp14
 70
     0
102
RTVSPropertyOp15
 70
     0
102
RTVSPropertyOp16
 70
     0
102
RTVSPropertyOp17
 70
     0
102
RTVSPropertyOp18
 70
     0
102
RTVSPropertyOp19
 70
     0
102
RTVSPropertyOp20
 70
     0
102
RTVSPropertyOp21
 70
     0
102
RTVSPropertyOp22
 70
     0
102
RTVSPropertyOp23
 70
     0
102
RTVSPropertyOp24
 70
     0
102
RTVSPropertyOp25
 70
     0
102
RTVSPropertyOp26
 70
     0
102
RTVSPropertyOp27
 70
     0
102
RTVSPropertyOp28
 70
     1
102
RTVSPropertyOp29
 70
     1
102
RTVSPropertyOp30
 70
     1
102
RTVSPropertyOp31
 70
     1
102
RTVSPropertyOp32
 70
     1
102
RTVSPropertyOp33
 70
     1
102
RTVSPropertyOp34
 70
     1
102
RTVSPropertyOp35
 70
     1
102
RTVSPropertyOp36
 70
     1
102
RTVSPropertyOp37
 70
     1
102
RTVSPropertyOp38
 70
     1
102
RTVSPropertyOp39
 70
     1
102
RTVSPropertyOp40
 70
     1
102
RTVSPropertyOp41
 70
     1
102
RTVSPropertyOp42
 70
     1
102
RTVSPropertyOp43
 70
     1
102
RTVSPropertyOp44
 70
     1
102
RTVSPropertyOp45
 70
     1
102
RTVSPropertyOp46
 70
     1
102
RTVSPropertyOp47
 70
     1
102
RTVSPropertyOp48
 70
     1
102
RTVSPropertyOp49
 70
     1
102
RTVSPropertyOp50
 70
     1
102
RTVSPropertyOp51
 70
     0
102
RTVSPropertyOp52
 70
     0
102
RTVSPropertyOp53
 70
     1
102
RTVSPropertyOp54
 70
     1
102
RTVSPropertyOp55
 70
     1
102
RTVSPropertyOp56
 70
     1
102
RTVSPropertyOp57
 70
     1
102
RTVSPost2010Prop28
280
     0
102
RTVSPost2010PropOp28
 70
     1
102
RTVSPost2010Prop29
280
     1
102
RTVSPost2010PropOp29
 70
     1
102
RTVSPost2010Prop30
280
     1
102
RTVSPost2010PropOp30
 70
     1
102
RTVSPost2010Prop31
280
     0
102
RTVSPost2010PropOp31
 70
     1
102
RTVSPost2010Prop32
280
     0
102
RTVSPost2010PropOp32
 70
     1
102
RTVSPost2010Prop33
280
     0
102
RTVSPost2010PropOp33
 70
     1
102
RTVSPost2010Prop34
280
     0
102
RTVSPost2010PropOp34
 70
     1
102
RTVSPost2010Prop35
280
     0
102
RTVSPost2010PropOp35
 70
     1
102
RTVSPost2010Prop36
280
     0
102
RTVSPost2010PropOp36
 70
     1
102
RTVSPost2010Prop37
 90
       50
102
RTVSPost2010PropOp37
 70
     1
102
RTVSPost2010Prop38
140
0.0
102
RTVSPost2010PropOp38
 70
     1
102
RTVSPost2010Prop39
140
1.0
102
RTVSPost2010PropOp39
 70
     1
102
RTVSPost2010Prop40
 90
        0
102
RTVSPost2010PropOp40
 70
     1
102
RTVSPost2010Prop41ColorIndex
 90
       18
102
RTVSPost2010Prop41ColorRGB
 90
        0
102
RTVSPost2010PropOp41
 70
     1
102
RTVSPost2010Prop42
 90
       50
102
RTVSPost2010PropOp42
 70
     1
102
RTVSPost2010Prop43
 90
        3
102
RTVSPost2010PropOp43
 70
     1
102
RTVSPost2010Prop44ColorIndex
 90
        5
102
RTVSPost2010Prop44ColorRGB
 90
      255
102
RTVSPost2010PropOp44
 70
     1
102
RTVSPost2010Prop45
280
     0
102
RTVSPost2010PropOp45
 70
     1
102
RTVSPost2010Prop46
 90
       50
102
RTVSPost2010PropOp46
 70
     1
102
RTVSPost2010Prop47
 90
       50
102
RTVSPost2010PropOp47
 70
     1
102
RTVSPost2010Prop48
 90
       50
102
RTVSPost2010PropOp48
 70
     1
102
RTVSPost2010Prop49
280
     0
102
RTVSPost2010PropOp49
 70
     1
102
RTVSPost2010Prop50
 90
       50
102
RTVSPost2010PropOp50
 70
     1
102
RTVSPost2010Prop51ColorIndex
 90
      256
102
RTVSPost2010Prop51ColorRGB
 90
-16777216
102
RTVSPost2010PropOp51
 70
     0
102
RTVSPost2010Prop52
140
1.0
102
RTVSPost2010PropOp52
 70
     0
102
RTVSPost2010Prop53
 90
        2
102
RTVSPost2010PropOp53
 70
     1
102
RTVSPost2010Prop54
  1
strokes_ogs.tif
102
RTVSPost2010PropOp54
 70
     1
102
RTVSPost2010Prop55
280
     0
102
RTVSPost2010PropOp55
 70
     1
102
RTVSPost2010Prop56
140
1.0
102
RTVSPost2010PropOp56
 70
     1
102
RTVSPost2010Prop57
140
1.0
102
RTVSPost2010PropOp57
 70
     1
  0
XRECORD
  5
9B3
102
{ACAD_REACTORS
330
9B2
102
}
330
9B2
100
AcDbXrecord
280
     1
102
RTVSPropertyOp0
 70
     1
102
RTVSPropertyOp1
 70
     1
102
RTVSPropertyOp2
 70
     1
102
RTVSPropertyOp3
 70
     1
102
RTVSPropertyOp4
 70
     1
102
RTVSPropertyOp5
 70
     1
102
RTVSPropertyOp6
 70
     1
102
RTVSPropertyOp7
 70
     1
102
RTVSPropertyOp8
 70
     1
102
RTVSPropertyOp9
 70
     1
102
RTVSPropertyOp10
 70
     1
102
RTVSPropertyOp11
 70
     1
102
RTVSPropertyOp12
 70
     1
102
RTVSPropertyOp13
 70
     1
102
RTVSPropertyOp14
 70
     1
102
RTVSPropertyOp15
 70
     1
102
RTVSPropertyOp16
 70
     1
102
RTVSPropertyOp17
 70
     1
102
RTVSPropertyOp18
 70
     1
102
RTVSPropertyOp19
 70
     1
102
RTVSPropertyOp20
 70
     1
102
RTVSPropertyOp21
 70
     1
102
RTVSPropertyOp22
 70
     1
102
RTVSPropertyOp23
 70
     1
102
RTVSPropertyOp24
 70
     1
102
RTVSPropertyOp25
 70
     1
102
RTVSPropertyOp26
 70
     1
102
RTVSPropertyOp27
 70
     1
102
RTVSPropertyOp28
 70
     1
102
RTVSPropertyOp29
 70
     1
102
RTVSPropertyOp30
 70
     1
102
RTVSPropertyOp31
 70
     1
102
RTVSPropertyOp32
 70
     1
102
RTVSPropertyOp33
 70
     1
102
RTVSPropertyOp34
 70
     1
102
RTVSPropertyOp35
 70
     1
102
RTVSPropertyOp36
 70
     1
102
RTVSPropertyOp37
 70
     1
102
RTVSPropertyOp38
 70
     1
102
RTVSPropertyOp39
 70
     1
102
RTVSPropertyOp40
 70
     1
102
RTVSPropertyOp41
 70
     1
102
RTVSPropertyOp42
 70
     1
102
RTVSPropertyOp43
 70
     1
102
RTVSPropertyOp44
 70
     1
102
RTVSPropertyOp45
 70
     1
102
RTVSPropertyOp46
 70
     1
102
RTVSPropertyOp47
 70
     1
102
RTVSPropertyOp48
 70
     1
102
RTVSPropertyOp49
 70
     1
102
RTVSPropertyOp50
 70
     1
102
RTVSPropertyOp51
 70
     0
102
RTVSPropertyOp52
 70
     0
102
RTVSPropertyOp53
 70
     1
102
RTVSPropertyOp54
 70
     1
102
RTVSPropertyOp55
 70
     1
102
RTVSPropertyOp56
 70
     1
102
RTVSPropertyOp57
 70
     1
102
RTVSPost2010Prop28
280
     0
102
RTVSPost2010PropOp28
 70
     1
102
RTVSPost2010Prop29
280
     1
102
RTVSPost2010PropOp29
 70
     1
102
RTVSPost2010Prop30
280
     1
102
RTVSPost2010PropOp30
 70
     1
102
RTVSPost2010Prop31
280
     0
102
RTVSPost2010PropOp31
 70
     1
102
RTVSPost2010Prop32
280
     0
102
RTVSPost2010PropOp32
 70
     1
102
RTVSPost2010Prop33
280
     0
102
RTVSPost2010PropOp33
 70
     1
102
RTVSPost2010Prop34
280
     0
102
RTVSPost2010PropOp34
 70
     1
102
RTVSPost2010Prop35
280
     0
102
RTVSPost2010PropOp35
 70
     1
102
RTVSPost2010Prop36
280
     0
102
RTVSPost2010PropOp36
 70
     1
102
RTVSPost2010Prop37
 90
       50
102
RTVSPost2010PropOp37
 70
     1
102
RTVSPost2010Prop38
140
0.0
102
RTVSPost2010PropOp38
 70
     1
102
RTVSPost2010Prop39
140
1.0
102
RTVSPost2010PropOp39
 70
     1
102
RTVSPost2010Prop40
 90
        0
102
RTVSPost2010PropOp40
 70
     1
102
RTVSPost2010Prop41ColorIndex
 90
       18
102
RTVSPost2010Prop41ColorRGB
 90
        0
102
RTVSPost2010PropOp41
 70
     1
102
RTVSPost2010Prop42
 90
       50
102
RTVSPost2010PropOp42
 70
     1
102
RTVSPost2010Prop43
 90
        3
102
RTVSPost2010PropOp43
 70
     1
102
RTVSPost2010Prop44ColorIndex
 90
        5
102
RTVSPost2010Prop44ColorRGB
 90
      255
102
RTVSPost2010PropOp44
 70
     1
102
RTVSPost2010Prop45
280
     0
102
RTVSPost2010PropOp45
 70
     1
102
RTVSPost2010Prop46
 90
       50
102
RTVSPost2010PropOp46
 70
     1
102
RTVSPost2010Prop47
 90
       50
102
RTVSPost2010PropOp47
 70
     1
102
RTVSPost2010Prop48
 90
       50
102
RTVSPost2010PropOp48
 70
     1
102
RTVSPost2010Prop49
280
     0
102
RTVSPost2010PropOp49
 70
     1
102
RTVSPost2010Prop50
 90
       50
102
RTVSPost2010PropOp50
 70
     1
102
RTVSPost2010Prop51ColorIndex
 90
      256
102
RTVSPost2010Prop51ColorRGB
 90
-16777216
102
RTVSPost2010PropOp51
 70
     0
102
RTVSPost2010Prop52
140
1.0
102
RTVSPost2010PropOp52
 70
     0
102
RTVSPost2010Prop53
 90
        2
102
RTVSPost2010PropOp53
 70
     1
102
RTVSPost2010Prop54
  1
strokes_ogs.tif
102
RTVSPost2010PropOp54
 70
     1
102
RTVSPost2010Prop55
280
     0
102
RTVSPost2010PropOp55
 70
     1
102
RTVSPost2010Prop56
140
1.0
102
RTVSPost2010PropOp56
 70
     1
102
RTVSPost2010Prop57
140
1.0
102
RTVSPost2010PropOp57
 70
     1
  0
XRECORD
  5
9B5
102
{ACAD_REACTORS
330
9B4
102
}
330
9B4
100
AcDbXrecord
280
     1
102
RTVSPropertyOp0
 70
     1
102
RTVSPropertyOp1
 70
     1
102
RTVSPropertyOp2
 70
     1
102
RTVSPropertyOp3
 70
     1
102
RTVSPropertyOp4
 70
     1
102
RTVSPropertyOp5
 70
     1
102
RTVSPropertyOp6
 70
     1
102
RTVSPropertyOp7
 70
     1
102
RTVSPropertyOp8
 70
     1
102
RTVSPropertyOp9
 70
     1
102
RTVSPropertyOp10
 70
     1
102
RTVSPropertyOp11
 70
     1
102
RTVSPropertyOp12
 70
     1
102
RTVSPropertyOp13
 70
     1
102
RTVSPropertyOp14
 70
     1
102
RTVSPropertyOp15
 70
     1
102
RTVSPropertyOp16
 70
     1
102
RTVSPropertyOp17
 70
     1
102
RTVSPropertyOp18
 70
     1
102
RTVSPropertyOp19
 70
     1
102
RTVSPropertyOp20
 70
     1
102
RTVSPropertyOp21
 70
     1
102
RTVSPropertyOp22
 70
     1
102
RTVSPropertyOp23
 70
     1
102
RTVSPropertyOp24
 70
     1
102
RTVSPropertyOp25
 70
     1
102
RTVSPropertyOp26
 70
     1
102
RTVSPropertyOp27
 70
     1
102
RTVSPropertyOp28
 70
     1
102
RTVSPropertyOp29
 70
     1
102
RTVSPropertyOp30
 70
     1
102
RTVSPropertyOp31
 70
     1
102
RTVSPropertyOp32
 70
     1
102
RTVSPropertyOp33
 70
     1
102
RTVSPropertyOp34
 70
     1
102
RTVSPropertyOp35
 70
     1
102
RTVSPropertyOp36
 70
     1
102
RTVSPropertyOp37
 70
     1
102
RTVSPropertyOp38
 70
     1
102
RTVSPropertyOp39
 70
     1
102
RTVSPropertyOp40
 70
     1
102
RTVSPropertyOp41
 70
     1
102
RTVSPropertyOp42
 70
     1
102
RTVSPropertyOp43
 70
     1
102
RTVSPropertyOp44
 70
     1
102
RTVSPropertyOp45
 70
     1
102
RTVSPropertyOp46
 70
     1
102
RTVSPropertyOp47
 70
     1
102
RTVSPropertyOp48
 70
     1
102
RTVSPropertyOp49
 70
     1
102
RTVSPropertyOp50
 70
     1
102
RTVSPropertyOp51
 70
     0
102
RTVSPropertyOp52
 70
     0
102
RTVSPropertyOp53
 70
     1
102
RTVSPropertyOp54
 70
     1
102
RTVSPropertyOp55
 70
     1
102
RTVSPropertyOp56
 70
     1
102
RTVSPropertyOp57
 70
     1
102
RTVSPost2010Prop28
280
     0
102
RTVSPost2010PropOp28
 70
     1
102
RTVSPost2010Prop29
280
     1
102
RTVSPost2010PropOp29
 70
     1
102
RTVSPost2010Prop30
280
     1
102
RTVSPost2010PropOp30
 70
     1
102
RTVSPost2010Prop31
280
     0
102
RTVSPost2010PropOp31
 70
     1
102
RTVSPost2010Prop32
280
     0
102
RTVSPost2010PropOp32
 70
     1
102
RTVSPost2010Prop33
280
     0
102
RTVSPost2010PropOp33
 70
     1
102
RTVSPost2010Prop34
280
     0
102
RTVSPost2010PropOp34
 70
     1
102
RTVSPost2010Prop35
280
     0
102
RTVSPost2010PropOp35
 70
     1
102
RTVSPost2010Prop36
280
     0
102
RTVSPost2010PropOp36
 70
     1
102
RTVSPost2010Prop37
 90
       50
102
RTVSPost2010PropOp37
 70
     1
102
RTVSPost2010Prop38
140
0.0
102
RTVSPost2010PropOp38
 70
     1
102
RTVSPost2010Prop39
140
1.0
102
RTVSPost2010PropOp39
 70
     1
102
RTVSPost2010Prop40
 90
        0
102
RTVSPost2010PropOp40
 70
     1
102
RTVSPost2010Prop41ColorIndex
 90
       18
102
RTVSPost2010Prop41ColorRGB
 90
        0
102
RTVSPost2010PropOp41
 70
     1
102
RTVSPost2010Prop42
 90
       50
102
RTVSPost2010PropOp42
 70
     1
102
RTVSPost2010Prop43
 90
        3
102
RTVSPost2010PropOp43
 70
     1
102
RTVSPost2010Prop44ColorIndex
 90
        5
102
RTVSPost2010Prop44ColorRGB
 90
      255
102
RTVSPost2010PropOp44
 70
     1
102
RTVSPost2010Prop45
280
     0
102
RTVSPost2010PropOp45
 70
     1
102
RTVSPost2010Prop46
 90
       50
102
RTVSPost2010PropOp46
 70
     1
102
RTVSPost2010Prop47
 90
       50
102
RTVSPost2010PropOp47
 70
     1
102
RTVSPost2010Prop48
 90
       50
102
RTVSPost2010PropOp48
 70
     1
102
RTVSPost2010Prop49
280
     0
102
RTVSPost2010PropOp49
 70
     1
102
RTVSPost2010Prop50
 90
       50
102
RTVSPost2010PropOp50
 70
     1
102
RTVSPost2010Prop51ColorIndex
 90
      256
102
RTVSPost2010Prop51ColorRGB
 90
-16777216
102
RTVSPost2010PropOp51
 70
     0
102
RTVSPost2010Prop52
140
1.0
102
RTVSPost2010PropOp52
 70
     0
102
RTVSPost2010Prop53
 90
        2
102
RTVSPost2010PropOp53
 70
     1
102
RTVSPost2010Prop54
  1
strokes_ogs.tif
102
RTVSPost2010PropOp54
 70
     1
102
RTVSPost2010Prop55
280
     0
102
RTVSPost2010PropOp55
 70
     1
102
RTVSPost2010Prop56
140
1.0
102
RTVSPost2010PropOp56
 70
     1
102
RTVSPost2010Prop57
140
1.0
102
RTVSPost2010PropOp57
 70
     1
  0
XRECORD
  5
9B7
102
{ACAD_REACTORS
330
9B6
102
}
330
9B6
100
AcDbXrecord
280
     1
102
RTVSPropertyOp0
 70
     1
102
RTVSPropertyOp1
 70
     1
102
RTVSPropertyOp2
 70
     1
102
RTVSPropertyOp3
 70
     1
102
RTVSPropertyOp4
 70
     1
102
RTVSPropertyOp5
 70
     1
102
RTVSPropertyOp6
 70
     1
102
RTVSPropertyOp7
 70
     1
102
RTVSPropertyOp8
 70
     1
102
RTVSPropertyOp9
 70
     1
102
RTVSPropertyOp10
 70
     1
102
RTVSPropertyOp11
 70
     1
102
RTVSPropertyOp12
 70
     1
102
RTVSPropertyOp13
 70
     1
102
RTVSPropertyOp14
 70
     1
102
RTVSPropertyOp15
 70
     1
102
RTVSPropertyOp16
 70
     1
102
RTVSPropertyOp17
 70
     1
102
RTVSPropertyOp18
 70
     1
102
RTVSPropertyOp19
 70
     1
102
RTVSPropertyOp20
 70
     1
102
RTVSPropertyOp21
 70
     1
102
RTVSPropertyOp22
 70
     1
102
RTVSPropertyOp23
 70
     1
102
RTVSPropertyOp24
 70
     1
102
RTVSPropertyOp25
 70
     1
102
RTVSPropertyOp26
 70
     1
102
RTVSPropertyOp27
 70
     1
102
RTVSPropertyOp28
 70
     1
102
RTVSPropertyOp29
 70
     1
102
RTVSPropertyOp30
 70
     1
102
RTVSPropertyOp31
 70
     1
102
RTVSPropertyOp32
 70
     1
102
RTVSPropertyOp33
 70
     1
102
RTVSPropertyOp34
 70
     1
102
RTVSPropertyOp35
 70
     1
102
RTVSPropertyOp36
 70
     1
102
RTVSPropertyOp37
 70
     1
102
RTVSPropertyOp38
 70
     1
102
RTVSPropertyOp39
 70
     1
102
RTVSPropertyOp40
 70
     1
102
RTVSPropertyOp41
 70
     1
102
RTVSPropertyOp42
 70
     1
102
RTVSPropertyOp43
 70
     1
102
RTVSPropertyOp44
 70
     1
102
RTVSPropertyOp45
 70
     1
102
RTVSPropertyOp46
 70
     1
102
RTVSPropertyOp47
 70
     1
102
RTVSPropertyOp48
 70
     1
102
RTVSPropertyOp49
 70
     1
102
RTVSPropertyOp50
 70
     1
102
RTVSPropertyOp51
 70
     0
102
RTVSPropertyOp52
 70
     0
102
RTVSPropertyOp53
 70
     1
102
RTVSPropertyOp54
 70
     1
102
RTVSPropertyOp55
 70
     1
102
RTVSPropertyOp56
 70
     1
102
RTVSPropertyOp57
 70
     1
102
RTVSPost2010Prop28
280
     0
102
RTVSPost2010PropOp28
 70
     1
102
RTVSPost2010Prop29
280
     1
102
RTVSPost2010PropOp29
 70
     1
102
RTVSPost2010Prop30
280
     1
102
RTVSPost2010PropOp30
 70
     1
102
RTVSPost2010Prop31
280
     0
102
RTVSPost2010PropOp31
 70
     1
102
RTVSPost2010Prop32
280
     0
102
RTVSPost2010PropOp32
 70
     1
102
RTVSPost2010Prop33
280
     0
102
RTVSPost2010PropOp33
 70
     1
102
RTVSPost2010Prop34
280
     0
102
RTVSPost2010PropOp34
 70
     1
102
RTVSPost2010Prop35
280
     0
102
RTVSPost2010PropOp35
 70
     1
102
RTVSPost2010Prop36
280
     0
102
RTVSPost2010PropOp36
 70
     1
102
RTVSPost2010Prop37
 90
       50
102
RTVSPost2010PropOp37
 70
     1
102
RTVSPost2010Prop38
140
0.0
102
RTVSPost2010PropOp38
 70
     1
102
RTVSPost2010Prop39
140
1.0
102
RTVSPost2010PropOp39
 70
     1
102
RTVSPost2010Prop40
 90
        0
102
RTVSPost2010PropOp40
 70
     1
102
RTVSPost2010Prop41ColorIndex
 90
       18
102
RTVSPost2010Prop41ColorRGB
 90
        0
102
RTVSPost2010PropOp41
 70
     1
102
RTVSPost2010Prop42
 90
       50
102
RTVSPost2010PropOp42
 70
     1
102
RTVSPost2010Prop43
 90
        3
102
RTVSPost2010PropOp43
 70
     1
102
RTVSPost2010Prop44ColorIndex
 90
        5
102
RTVSPost2010Prop44ColorRGB
 90
      255
102
RTVSPost2010PropOp44
 70
     1
102
RTVSPost2010Prop45
280
     0
102
RTVSPost2010PropOp45
 70
     1
102
RTVSPost2010Prop46
 90
       50
102
RTVSPost2010PropOp46
 70
     1
102
RTVSPost2010Prop47
 90
       50
102
RTVSPost2010PropOp47
 70
     1
102
RTVSPost2010Prop48
 90
       50
102
RTVSPost2010PropOp48
 70
     1
102
RTVSPost2010Prop49
280
     0
102
RTVSPost2010PropOp49
 70
     1
102
RTVSPost2010Prop50
 90
       50
102
RTVSPost2010PropOp50
 70
     1
102
RTVSPost2010Prop51ColorIndex
 90
      256
102
RTVSPost2010Prop51ColorRGB
 90
-16777216
102
RTVSPost2010PropOp51
 70
     0
102
RTVSPost2010Prop52
140
1.0
102
RTVSPost2010PropOp52
 70
     0
102
RTVSPost2010Prop53
 90
        2
102
RTVSPost2010PropOp53
 70
     1
102
RTVSPost2010Prop54
  1
strokes_ogs.tif
102
RTVSPost2010PropOp54
 70
     1
102
RTVSPost2010Prop55
280
     0
102
RTVSPost2010PropOp55
 70
     1
102
RTVSPost2010Prop56
140
1.0
102
RTVSPost2010PropOp56
 70
     1
102
RTVSPost2010Prop57
140
1.0
102
RTVSPost2010PropOp57
 70
     1
  0
XRECORD
  5
9B9
102
{ACAD_REACTORS
330
9B8
102
}
330
9B8
100
AcDbXrecord
280
     1
102
RTVSPropertyOp0
 70
     1
102
RTVSPropertyOp1
 70
     1
102
RTVSPropertyOp2
 70
     1
102
RTVSPropertyOp3
 70
     1
102
RTVSPropertyOp4
 70
     1
102
RTVSPropertyOp5
 70
     1
102
RTVSPropertyOp6
 70
     1
102
RTVSPropertyOp7
 70
     1
102
RTVSPropertyOp8
 70
     1
102
RTVSPropertyOp9
 70
     1
102
RTVSPropertyOp10
 70
     1
102
RTVSPropertyOp11
 70
     1
102
RTVSPropertyOp12
 70
     1
102
RTVSPropertyOp13
 70
     1
102
RTVSPropertyOp14
 70
     1
102
RTVSPropertyOp15
 70
     1
102
RTVSPropertyOp16
 70
     1
102
RTVSPropertyOp17
 70
     1
102
RTVSPropertyOp18
 70
     1
102
RTVSPropertyOp19
 70
     1
102
RTVSPropertyOp20
 70
     1
102
RTVSPropertyOp21
 70
     1
102
RTVSPropertyOp22
 70
     1
102
RTVSPropertyOp23
 70
     1
102
RTVSPropertyOp24
 70
     1
102
RTVSPropertyOp25
 70
     1
102
RTVSPropertyOp26
 70
     1
102
RTVSPropertyOp27
 70
     1
102
RTVSPropertyOp28
 70
     1
102
RTVSPropertyOp29
 70
     1
102
RTVSPropertyOp30
 70
     1
102
RTVSPropertyOp31
 70
     1
102
RTVSPropertyOp32
 70
     1
102
RTVSPropertyOp33
 70
     1
102
RTVSPropertyOp34
 70
     1
102
RTVSPropertyOp35
 70
     1
102
RTVSPropertyOp36
 70
     1
102
RTVSPropertyOp37
 70
     1
102
RTVSPropertyOp38
 70
     1
102
RTVSPropertyOp39
 70
     1
102
RTVSPropertyOp40
 70
     1
102
RTVSPropertyOp41
 70
     1
102
RTVSPropertyOp42
 70
     1
102
RTVSPropertyOp43
 70
     1
102
RTVSPropertyOp44
 70
     1
102
RTVSPropertyOp45
 70
     1
102
RTVSPropertyOp46
 70
     1
102
RTVSPropertyOp47
 70
     1
102
RTVSPropertyOp48
 70
     1
102
RTVSPropertyOp49
 70
     1
102
RTVSPropertyOp50
 70
     1
102
RTVSPropertyOp51
 70
     0
102
RTVSPropertyOp52
 70
     0
102
RTVSPropertyOp53
 70
     1
102
RTVSPropertyOp54
 70
     1
102
RTVSPropertyOp55
 70
     1
102
RTVSPropertyOp56
 70
     1
102
RTVSPropertyOp57
 70
     1
102
RTVSPost2010Prop28
280
     0
102
RTVSPost2010PropOp28
 70
     1
102
RTVSPost2010Prop29
280
     1
102
RTVSPost2010PropOp29
 70
     1
102
RTVSPost2010Prop30
280
     1
102
RTVSPost2010PropOp30
 70
     1
102
RTVSPost2010Prop31
280
     0
102
RTVSPost2010PropOp31
 70
     1
102
RTVSPost2010Prop32
280
     0
102
RTVSPost2010PropOp32
 70
     1
102
RTVSPost2010Prop33
280
     0
102
RTVSPost2010PropOp33
 70
     1
102
RTVSPost2010Prop34
280
     0
102
RTVSPost2010PropOp34
 70
     1
102
RTVSPost2010Prop35
280
     0
102
RTVSPost2010PropOp35
 70
     1
102
RTVSPost2010Prop36
280
     0
102
RTVSPost2010PropOp36
 70
     1
102
RTVSPost2010Prop37
 90
       50
102
RTVSPost2010PropOp37
 70
     1
102
RTVSPost2010Prop38
140
0.0
102
RTVSPost2010PropOp38
 70
     1
102
RTVSPost2010Prop39
140
1.0
102
RTVSPost2010PropOp39
 70
     1
102
RTVSPost2010Prop40
 90
        0
102
RTVSPost2010PropOp40
 70
     1
102
RTVSPost2010Prop41ColorIndex
 90
       18
102
RTVSPost2010Prop41ColorRGB
 90
        0
102
RTVSPost2010PropOp41
 70
     1
102
RTVSPost2010Prop42
 90
       50
102
RTVSPost2010PropOp42
 70
     1
102
RTVSPost2010Prop43
 90
        3
102
RTVSPost2010PropOp43
 70
     1
102
RTVSPost2010Prop44ColorIndex
 90
        5
102
RTVSPost2010Prop44ColorRGB
 90
      255
102
RTVSPost2010PropOp44
 70
     1
102
RTVSPost2010Prop45
280
     0
102
RTVSPost2010PropOp45
 70
     1
102
RTVSPost2010Prop46
 90
       50
102
RTVSPost2010PropOp46
 70
     1
102
RTVSPost2010Prop47
 90
       50
102
RTVSPost2010PropOp47
 70
     1
102
RTVSPost2010Prop48
 90
       50
102
RTVSPost2010PropOp48
 70
     1
102
RTVSPost2010Prop49
280
     0
102
RTVSPost2010PropOp49
 70
     1
102
RTVSPost2010Prop50
 90
       50
102
RTVSPost2010PropOp50
 70
     1
102
RTVSPost2010Prop51ColorIndex
 90
      256
102
RTVSPost2010Prop51ColorRGB
 90
-16777216
102
RTVSPost2010PropOp51
 70
     0
102
RTVSPost2010Prop52
140
1.0
102
RTVSPost2010PropOp52
 70
     0
102
RTVSPost2010Prop53
 90
        2
102
RTVSPost2010PropOp53
 70
     1
102
RTVSPost2010Prop54
  1
strokes_ogs.tif
102
RTVSPost2010PropOp54
 70
     1
102
RTVSPost2010Prop55
280
     0
102
RTVSPost2010PropOp55
 70
     1
102
RTVSPost2010Prop56
140
1.0
102
RTVSPost2010PropOp56
 70
     1
102
RTVSPost2010Prop57
140
1.0
102
RTVSPost2010PropOp57
 70
     1
  0
XRECORD
  5
9BB
102
{ACAD_REACTORS
330
9BA
102
}
330
9BA
100
AcDbXrecord
280
     1
102
RTVSPropertyOp0
 70
     1
102
RTVSPropertyOp1
 70
     1
102
RTVSPropertyOp2
 70
     1
102
RTVSPropertyOp3
 70
     1
102
RTVSPropertyOp4
 70
     1
102
RTVSPropertyOp5
 70
     1
102
RTVSPropertyOp6
 70
     1
102
RTVSPropertyOp7
 70
     1
102
RTVSPropertyOp8
 70
     1
102
RTVSPropertyOp9
 70
     1
102
RTVSPropertyOp10
 70
     1
102
RTVSPropertyOp11
 70
     1
102
RTVSPropertyOp12
 70
     1
102
RTVSPropertyOp13
 70
     1
102
RTVSPropertyOp14
 70
     1
102
RTVSPropertyOp15
 70
     1
102
RTVSPropertyOp16
 70
     1
102
RTVSPropertyOp17
 70
     1
102
RTVSPropertyOp18
 70
     1
102
RTVSPropertyOp19
 70
     1
102
RTVSPropertyOp20
 70
     1
102
RTVSPropertyOp21
 70
     1
102
RTVSPropertyOp22
 70
     1
102
RTVSPropertyOp23
 70
     1
102
RTVSPropertyOp24
 70
     1
102
RTVSPropertyOp25
 70
     1
102
RTVSPropertyOp26
 70
     1
102
RTVSPropertyOp27
 70
     1
102
RTVSPropertyOp28
 70
     1
102
RTVSPropertyOp29
 70
     1
102
RTVSPropertyOp30
 70
     1
102
RTVSPropertyOp31
 70
     1
102
RTVSPropertyOp32
 70
     1
102
RTVSPropertyOp33
 70
     1
102
RTVSPropertyOp34
 70
     1
102
RTVSPropertyOp35
 70
     1
102
RTVSPropertyOp36
 70
     1
102
RTVSPropertyOp37
 70
     1
102
RTVSPropertyOp38
 70
     1
102
RTVSPropertyOp39
 70
     1
102
RTVSPropertyOp40
 70
     1
102
RTVSPropertyOp41
 70
     1
102
RTVSPropertyOp42
 70
     1
102
RTVSPropertyOp43
 70
     1
102
RTVSPropertyOp44
 70
     1
102
RTVSPropertyOp45
 70
     1
102
RTVSPropertyOp46
 70
     1
102
RTVSPropertyOp47
 70
     1
102
RTVSPropertyOp48
 70
     1
102
RTVSPropertyOp49
 70
     1
102
RTVSPropertyOp50
 70
     1
102
RTVSPropertyOp51
 70
     0
102
RTVSPropertyOp52
 70
     0
102
RTVSPropertyOp53
 70
     1
102
RTVSPropertyOp54
 70
     1
102
RTVSPropertyOp55
 70
     1
102
RTVSPropertyOp56
 70
     1
102
RTVSPropertyOp57
 70
     1
102
RTVSPost2010Prop28
280
     0
102
RTVSPost2010PropOp28
 70
     1
102
RTVSPost2010Prop29
280
     1
102
RTVSPost2010PropOp29
 70
     1
102
RTVSPost2010Prop30
280
     1
102
RTVSPost2010PropOp30
 70
     1
102
RTVSPost2010Prop31
280
     0
102
RTVSPost2010PropOp31
 70
     1
102
RTVSPost2010Prop32
280
     0
102
RTVSPost2010PropOp32
 70
     1
102
RTVSPost2010Prop33
280
     0
102
RTVSPost2010PropOp33
 70
     1
102
RTVSPost2010Prop34
280
     0
102
RTVSPost2010PropOp34
 70
     1
102
RTVSPost2010Prop35
280
     0
102
RTVSPost2010PropOp35
 70
     1
102
RTVSPost2010Prop36
280
     0
102
RTVSPost2010PropOp36
 70
     1
102
RTVSPost2010Prop37
 90
       50
102
RTVSPost2010PropOp37
 70
     1
102
RTVSPost2010Prop38
140
0.0
102
RTVSPost2010PropOp38
 70
     1
102
RTVSPost2010Prop39
140
1.0
102
RTVSPost2010PropOp39
 70
     1
102
RTVSPost2010Prop40
 90
        0
102
RTVSPost2010PropOp40
 70
     1
102
RTVSPost2010Prop41ColorIndex
 90
       18
102
RTVSPost2010Prop41ColorRGB
 90
        0
102
RTVSPost2010PropOp41
 70
     1
102
RTVSPost2010Prop42
 90
       50
102
RTVSPost2010PropOp42
 70
     1
102
RTVSPost2010Prop43
 90
        3
102
RTVSPost2010PropOp43
 70
     1
102
RTVSPost2010Prop44ColorIndex
 90
        5
102
RTVSPost2010Prop44ColorRGB
 90
      255
102
RTVSPost2010PropOp44
 70
     1
102
RTVSPost2010Prop45
280
     0
102
RTVSPost2010PropOp45
 70
     1
102
RTVSPost2010Prop46
 90
       50
102
RTVSPost2010PropOp46
 70
     1
102
RTVSPost2010Prop47
 90
       50
102
RTVSPost2010PropOp47
 70
     1
102
RTVSPost2010Prop48
 90
       50
102
RTVSPost2010PropOp48
 70
     1
102
RTVSPost2010Prop49
280
     0
102
RTVSPost2010PropOp49
 70
     1
102
RTVSPost2010Prop50
 90
       50
102
RTVSPost2010PropOp50
 70
     1
102
RTVSPost2010Prop51ColorIndex
 90
      256
102
RTVSPost2010Prop51ColorRGB
 90
-16777216
102
RTVSPost2010PropOp51
 70
     0
102
RTVSPost2010Prop52
140
1.0
102
RTVSPost2010PropOp52
 70
     0
102
RTVSPost2010Prop53
 90
        2
102
RTVSPost2010PropOp53
 70
     1
102
RTVSPost2010Prop54
  1
strokes_ogs.tif
102
RTVSPost2010PropOp54
 70
     1
102
RTVSPost2010Prop55
280
     0
102
RTVSPost2010PropOp55
 70
     1
102
RTVSPost2010Prop56
140
1.0
102
RTVSPost2010PropOp56
 70
     1
102
RTVSPost2010Prop57
140
1.0
102
RTVSPost2010PropOp57
 70
     1
  0
XRECORD
  5
9BD
102
{ACAD_REACTORS
330
9BC
102
}
330
9BC
100
AcDbXrecord
280
     1
102
RTVSPropertyOp0
 70
     1
102
RTVSPropertyOp1
 70
     1
102
RTVSPropertyOp2
 70
     1
102
RTVSPropertyOp3
 70
     1
102
RTVSPropertyOp4
 70
     1
102
RTVSPropertyOp5
 70
     1
102
RTVSPropertyOp6
 70
     1
102
RTVSPropertyOp7
 70
     1
102
RTVSPropertyOp8
 70
     1
102
RTVSPropertyOp9
 70
     1
102
RTVSPropertyOp10
 70
     1
102
RTVSPropertyOp11
 70
     1
102
RTVSPropertyOp12
 70
     1
102
RTVSPropertyOp13
 70
     1
102
RTVSPropertyOp14
 70
     1
102
RTVSPropertyOp15
 70
     1
102
RTVSPropertyOp16
 70
     1
102
RTVSPropertyOp17
 70
     1
102
RTVSPropertyOp18
 70
     1
102
RTVSPropertyOp19
 70
     1
102
RTVSPropertyOp20
 70
     1
102
RTVSPropertyOp21
 70
     1
102
RTVSPropertyOp22
 70
     1
102
RTVSPropertyOp23
 70
     1
102
RTVSPropertyOp24
 70
     1
102
RTVSPropertyOp25
 70
     1
102
RTVSPropertyOp26
 70
     1
102
RTVSPropertyOp27
 70
     1
102
RTVSPropertyOp28
 70
     1
102
RTVSPropertyOp29
 70
     1
102
RTVSPropertyOp30
 70
     1
102
RTVSPropertyOp31
 70
     1
102
RTVSPropertyOp32
 70
     1
102
RTVSPropertyOp33
 70
     1
102
RTVSPropertyOp34
 70
     1
102
RTVSPropertyOp35
 70
     1
102
RTVSPropertyOp36
 70
     1
102
RTVSPropertyOp37
 70
     1
102
RTVSPropertyOp38
 70
     1
102
RTVSPropertyOp39
 70
     1
102
RTVSPropertyOp40
 70
     1
102
RTVSPropertyOp41
 70
     1
102
RTVSPropertyOp42
 70
     1
102
RTVSPropertyOp43
 70
     1
102
RTVSPropertyOp44
 70
     1
102
RTVSPropertyOp45
 70
     1
102
RTVSPropertyOp46
 70
     1
102
RTVSPropertyOp47
 70
     1
102
RTVSPropertyOp48
 70
     1
102
RTVSPropertyOp49
 70
     1
102
RTVSPropertyOp50
 70
     1
102
RTVSPropertyOp51
 70
     0
102
RTVSPropertyOp52
 70
     0
102
RTVSPropertyOp53
 70
     1
102
RTVSPropertyOp54
 70
     1
102
RTVSPropertyOp55
 70
     1
102
RTVSPropertyOp56
 70
     1
102
RTVSPropertyOp57
 70
     1
102
RTVSPost2010Prop28
280
     0
102
RTVSPost2010PropOp28
 70
     1
102
RTVSPost2010Prop29
280
     1
102
RTVSPost2010PropOp29
 70
     1
102
RTVSPost2010Prop30
280
     1
102
RTVSPost2010PropOp30
 70
     1
102
RTVSPost2010Prop31
280
     0
102
RTVSPost2010PropOp31
 70
     1
102
RTVSPost2010Prop32
280
     0
102
RTVSPost2010PropOp32
 70
     1
102
RTVSPost2010Prop33
280
     0
102
RTVSPost2010PropOp33
 70
     1
102
RTVSPost2010Prop34
280
     0
102
RTVSPost2010PropOp34
 70
     1
102
RTVSPost2010Prop35
280
     0
102
RTVSPost2010PropOp35
 70
     1
102
RTVSPost2010Prop36
280
     0
102
RTVSPost2010PropOp36
 70
     1
102
RTVSPost2010Prop37
 90
       50
102
RTVSPost2010PropOp37
 70
     1
102
RTVSPost2010Prop38
140
0.0
102
RTVSPost2010PropOp38
 70
     1
102
RTVSPost2010Prop39
140
1.0
102
RTVSPost2010PropOp39
 70
     1
102
RTVSPost2010Prop40
 90
        0
102
RTVSPost2010PropOp40
 70
     1
102
RTVSPost2010Prop41ColorIndex
 90
       18
102
RTVSPost2010Prop41ColorRGB
 90
        0
102
RTVSPost2010PropOp41
 70
     1
102
RTVSPost2010Prop42
 90
       50
102
RTVSPost2010PropOp42
 70
     1
102
RTVSPost2010Prop43
 90
        3
102
RTVSPost2010PropOp43
 70
     1
102
RTVSPost2010Prop44ColorIndex
 90
        5
102
RTVSPost2010Prop44ColorRGB
 90
      255
102
RTVSPost2010PropOp44
 70
     1
102
RTVSPost2010Prop45
280
     0
102
RTVSPost2010PropOp45
 70
     1
102
RTVSPost2010Prop46
 90
       50
102
RTVSPost2010PropOp46
 70
     1
102
RTVSPost2010Prop47
 90
       50
102
RTVSPost2010PropOp47
 70
     1
102
RTVSPost2010Prop48
 90
       50
102
RTVSPost2010PropOp48
 70
     1
102
RTVSPost2010Prop49
280
     0
102
RTVSPost2010PropOp49
 70
     1
102
RTVSPost2010Prop50
 90
       50
102
RTVSPost2010PropOp50
 70
     1
102
RTVSPost2010Prop51ColorIndex
 90
      256
102
RTVSPost2010Prop51ColorRGB
 90
-16777216
102
RTVSPost2010PropOp51
 70
     0
102
RTVSPost2010Prop52
140
1.0
102
RTVSPost2010PropOp52
 70
     0
102
RTVSPost2010Prop53
 90
        2
102
RTVSPost2010PropOp53
 70
     1
102
RTVSPost2010Prop54
  1
strokes_ogs.tif
102
RTVSPost2010PropOp54
 70
     1
102
RTVSPost2010Prop55
280
     0
102
RTVSPost2010PropOp55
 70
     1
102
RTVSPost2010Prop56
140
1.0
102
RTVSPost2010PropOp56
 70
     1
102
RTVSPost2010Prop57
140
1.0
102
RTVSPost2010PropOp57
 70
     1
  0
XRECORD
  5
9BF
102
{ACAD_REACTORS
330
9BE
102
}
330
9BE
100
AcDbXrecord
280
     1
102
RTVSPropertyOp0
 70
     0
102
RTVSPropertyOp1
 70
     0
102
RTVSPropertyOp2
 70
     0
102
RTVSPropertyOp3
 70
     0
102
RTVSPropertyOp4
 70
     0
102
RTVSPropertyOp5
 70
     0
102
RTVSPropertyOp6
 70
     0
102
RTVSPropertyOp7
 70
     0
102
RTVSPropertyOp8
 70
     0
102
RTVSPropertyOp9
 70
     0
102
RTVSPropertyOp10
 70
     0
102
RTVSPropertyOp11
 70
     0
102
RTVSPropertyOp12
 70
     0
102
RTVSPropertyOp13
 70
     0
102
RTVSPropertyOp14
 70
     0
102
RTVSPropertyOp15
 70
     0
102
RTVSPropertyOp16
 70
     0
102
RTVSPropertyOp17
 70
     0
102
RTVSPropertyOp18
 70
     0
102
RTVSPropertyOp19
 70
     0
102
RTVSPropertyOp20
 70
     0
102
RTVSPropertyOp21
 70
     0
102
RTVSPropertyOp22
 70
     0
102
RTVSPropertyOp23
 70
     0
102
RTVSPropertyOp24
 70
     0
102
RTVSPropertyOp25
 70
     0
102
RTVSPropertyOp26
 70
     0
102
RTVSPropertyOp27
 70
     0
102
RTVSPropertyOp28
 70
     1
102
RTVSPropertyOp29
 70
     1
102
RTVSPropertyOp30
 70
     1
102
RTVSPropertyOp31
 70
     1
102
RTVSPropertyOp32
 70
     1
102
RTVSPropertyOp33
 70
     1
102
RTVSPropertyOp34
 70
     1
102
RTVSPropertyOp35
 70
     1
102
RTVSPropertyOp36
 70
     1
102
RTVSPropertyOp37
 70
     1
102
RTVSPropertyOp38
 70
     1
102
RTVSPropertyOp39
 70
     1
102
RTVSPropertyOp40
 70
     1
102
RTVSPropertyOp41
 70
     1
102
RTVSPropertyOp42
 70
     1
102
RTVSPropertyOp43
 70
     1
102
RTVSPropertyOp44
 70
     1
102
RTVSPropertyOp45
 70
     1
102
RTVSPropertyOp46
 70
     1
102
RTVSPropertyOp47
 70
     1
102
RTVSPropertyOp48
 70
     1
102
RTVSPropertyOp49
 70
     1
102
RTVSPropertyOp50
 70
     1
102
RTVSPropertyOp51
 70
     0
102
RTVSPropertyOp52
 70
     0
102
RTVSPropertyOp53
 70
     1
102
RTVSPropertyOp54
 70
     1
102
RTVSPropertyOp55
 70
     1
102
RTVSPropertyOp56
 70
     1
102
RTVSPropertyOp57
 70
     1
102
RTVSPost2010Prop28
280
     0
102
RTVSPost2010PropOp28
 70
     1
102
RTVSPost2010Prop29
280
     1
102
RTVSPost2010PropOp29
 70
     1
102
RTVSPost2010Prop30
280
     1
102
RTVSPost2010PropOp30
 70
     1
102
RTVSPost2010Prop31
280
     0
102
RTVSPost2010PropOp31
 70
     1
102
RTVSPost2010Prop32
280
     0
102
RTVSPost2010PropOp32
 70
     1
102
RTVSPost2010Prop33
280
     0
102
RTVSPost2010PropOp33
 70
     1
102
RTVSPost2010Prop34
280
     0
102
RTVSPost2010PropOp34
 70
     1
102
RTVSPost2010Prop35
280
     0
102
RTVSPost2010PropOp35
 70
     1
102
RTVSPost2010Prop36
280
     0
102
RTVSPost2010PropOp36
 70
     1
102
RTVSPost2010Prop37
 90
       50
102
RTVSPost2010PropOp37
 70
     1
102
RTVSPost2010Prop38
140
0.0
102
RTVSPost2010PropOp38
 70
     1
102
RTVSPost2010Prop39
140
1.0
102
RTVSPost2010PropOp39
 70
     1
102
RTVSPost2010Prop40
 90
        0
102
RTVSPost2010PropOp40
 70
     1
102
RTVSPost2010Prop41ColorIndex
 90
       18
102
RTVSPost2010Prop41ColorRGB
 90
        0
102
RTVSPost2010PropOp41
 70
     1
102
RTVSPost2010Prop42
 90
       50
102
RTVSPost2010PropOp42
 70
     1
102
RTVSPost2010Prop43
 90
        3
102
RTVSPost2010PropOp43
 70
     1
102
RTVSPost2010Prop44ColorIndex
 90
        5
102
RTVSPost2010Prop44ColorRGB
 90
      255
102
RTVSPost2010PropOp44
 70
     1
102
RTVSPost2010Prop45
280
     0
102
RTVSPost2010PropOp45
 70
     1
102
RTVSPost2010Prop46
 90
       50
102
RTVSPost2010PropOp46
 70
     1
102
RTVSPost2010Prop47
 90
       50
102
RTVSPost2010PropOp47
 70
     1
102
RTVSPost2010Prop48
 90
       50
102
RTVSPost2010PropOp48
 70
     1
102
RTVSPost2010Prop49
280
     0
102
RTVSPost2010PropOp49
 70
     1
102
RTVSPost2010Prop50
 90
       50
102
RTVSPost2010PropOp50
 70
     1
102
RTVSPost2010Prop51ColorIndex
 90
      256
102
RTVSPost2010Prop51ColorRGB
 90
-16777216
102
RTVSPost2010PropOp51
 70
     0
102
RTVSPost2010Prop52
140
1.0
102
RTVSPost2010PropOp52
 70
     0
102
RTVSPost2010Prop53
 90
        2
102
RTVSPost2010PropOp53
 70
     1
102
RTVSPost2010Prop54
  1
strokes_ogs.tif
102
RTVSPost2010PropOp54
 70
     1
102
RTVSPost2010Prop55
280
     0
102
RTVSPost2010PropOp55
 70
     1
102
RTVSPost2010Prop56
140
1.0
102
RTVSPost2010PropOp56
 70
     1
102
RTVSPost2010Prop57
140
1.0
102
RTVSPost2010PropOp57
 70
     1
  0
XRECORD
  5
9C1
102
{ACAD_REACTORS
330
9C0
102
}
330
9C0
100
AcDbXrecord
280
     1
102
RTVSPropertyOp0
 70
     1
102
RTVSPropertyOp1
 70
     1
102
RTVSPropertyOp2
 70
     1
102
RTVSPropertyOp3
 70
     1
102
RTVSPropertyOp4
 70
     1
102
RTVSPropertyOp5
 70
     1
102
RTVSPropertyOp6
 70
     1
102
RTVSPropertyOp7
 70
     1
102
RTVSPropertyOp8
 70
     1
102
RTVSPropertyOp9
 70
     1
102
RTVSPropertyOp10
 70
     1
102
RTVSPropertyOp11
 70
     1
102
RTVSPropertyOp12
 70
     1
102
RTVSPropertyOp13
 70
     1
102
RTVSPropertyOp14
 70
     1
102
RTVSPropertyOp15
 70
     1
102
RTVSPropertyOp16
 70
     1
102
RTVSPropertyOp17
 70
     1
102
RTVSPropertyOp18
 70
     1
102
RTVSPropertyOp19
 70
     1
102
RTVSPropertyOp20
 70
     1
102
RTVSPropertyOp21
 70
     1
102
RTVSPropertyOp22
 70
     1
102
RTVSPropertyOp23
 70
     1
102
RTVSPropertyOp24
 70
     1
102
RTVSPropertyOp25
 70
     1
102
RTVSPropertyOp26
 70
     1
102
RTVSPropertyOp27
 70
     1
102
RTVSPropertyOp28
 70
     1
102
RTVSPropertyOp29
 70
     1
102
RTVSPropertyOp30
 70
     1
102
RTVSPropertyOp31
 70
     1
102
RTVSPropertyOp32
 70
     1
102
RTVSPropertyOp33
 70
     1
102
RTVSPropertyOp34
 70
     1
102
RTVSPropertyOp35
 70
     1
102
RTVSPropertyOp36
 70
     1
102
RTVSPropertyOp37
 70
     1
102
RTVSPropertyOp38
 70
     1
102
RTVSPropertyOp39
 70
     1
102
RTVSPropertyOp40
 70
     1
102
RTVSPropertyOp41
 70
     1
102
RTVSPropertyOp42
 70
     1
102
RTVSPropertyOp43
 70
     1
102
RTVSPropertyOp44
 70
     1
102
RTVSPropertyOp45
 70
     1
102
RTVSPropertyOp46
 70
     1
102
RTVSPropertyOp47
 70
     1
102
RTVSPropertyOp48
 70
     1
102
RTVSPropertyOp49
 70
     1
102
RTVSPropertyOp50
 70
     1
102
RTVSPropertyOp51
 70
     0
102
RTVSPropertyOp52
 70
     0
102
RTVSPropertyOp53
 70
     1
102
RTVSPropertyOp54
 70
     1
102
RTVSPropertyOp55
 70
     1
102
RTVSPropertyOp56
 70
     1
102
RTVSPropertyOp57
 70
     1
102
RTVSPost2010Prop28
280
     0
102
RTVSPost2010PropOp28
 70
     1
102
RTVSPost2010Prop29
280
     1
102
RTVSPost2010PropOp29
 70
     1
102
RTVSPost2010Prop30
280
     1
102
RTVSPost2010PropOp30
 70
     1
102
RTVSPost2010Prop31
280
     0
102
RTVSPost2010PropOp31
 70
     1
102
RTVSPost2010Prop32
280
     0
102
RTVSPost2010PropOp32
 70
     1
102
RTVSPost2010Prop33
280
     0
102
RTVSPost2010PropOp33
 70
     1
102
RTVSPost2010Prop34
280
     0
102
RTVSPost2010PropOp34
 70
     1
102
RTVSPost2010Prop35
280
     0
102
RTVSPost2010PropOp35
 70
     1
102
RTVSPost2010Prop36
280
     0
102
RTVSPost2010PropOp36
 70
     1
102
RTVSPost2010Prop37
 90
       50
102
RTVSPost2010PropOp37
 70
     1
102
RTVSPost2010Prop38
140
0.0
102
RTVSPost2010PropOp38
 70
     1
102
RTVSPost2010Prop39
140
1.0
102
RTVSPost2010PropOp39
 70
     1
102
RTVSPost2010Prop40
 90
        0
102
RTVSPost2010PropOp40
 70
     1
102
RTVSPost2010Prop41ColorIndex
 90
       18
102
RTVSPost2010Prop41ColorRGB
 90
        0
102
RTVSPost2010PropOp41
 70
     1
102
RTVSPost2010Prop42
 90
       50
102
RTVSPost2010PropOp42
 70
     1
102
RTVSPost2010Prop43
 90
        3
102
RTVSPost2010PropOp43
 70
     1
102
RTVSPost2010Prop44ColorIndex
 90
        5
102
RTVSPost2010Prop44ColorRGB
 90
      255
102
RTVSPost2010PropOp44
 70
     1
102
RTVSPost2010Prop45
280
     0
102
RTVSPost2010PropOp45
 70
     1
102
RTVSPost2010Prop46
 90
       50
102
RTVSPost2010PropOp46
 70
     1
102
RTVSPost2010Prop47
 90
       50
102
RTVSPost2010PropOp47
 70
     1
102
RTVSPost2010Prop48
 90
       50
102
RTVSPost2010PropOp48
 70
     1
102
RTVSPost2010Prop49
280
     0
102
RTVSPost2010PropOp49
 70
     1
102
RTVSPost2010Prop50
 90
       50
102
RTVSPost2010PropOp50
 70
     1
102
RTVSPost2010Prop51ColorIndex
 90
      256
102
RTVSPost2010Prop51ColorRGB
 90
-16777216
102
RTVSPost2010PropOp51
 70
     0
102
RTVSPost2010Prop52
140
1.0
102
RTVSPost2010PropOp52
 70
     0
102
RTVSPost2010Prop53
 90
        2
102
RTVSPost2010PropOp53
 70
     1
102
RTVSPost2010Prop54
  1
strokes_ogs.tif
102
RTVSPost2010PropOp54
 70
     1
102
RTVSPost2010Prop55
280
     0
102
RTVSPost2010PropOp55
 70
     1
102
RTVSPost2010Prop56
140
1.0
102
RTVSPost2010PropOp56
 70
     1
102
RTVSPost2010Prop57
140
1.0
102
RTVSPost2010PropOp57
 70
     1
  0
XRECORD
  5
9C3
102
{ACAD_REACTORS
330
9C2
102
}
330
9C2
100
AcDbXrecord
280
     1
102
RTVSPropertyOp0
 70
     0
102
RTVSPropertyOp1
 70
     0
102
RTVSPropertyOp2
 70
     0
102
RTVSPropertyOp3
 70
     0
102
RTVSPropertyOp4
 70
     0
102
RTVSPropertyOp5
 70
     0
102
RTVSPropertyOp6
 70
     0
102
RTVSPropertyOp7
 70
     0
102
RTVSPropertyOp8
 70
     0
102
RTVSPropertyOp9
 70
     0
102
RTVSPropertyOp10
 70
     0
102
RTVSPropertyOp11
 70
     0
102
RTVSPropertyOp12
 70
     0
102
RTVSPropertyOp13
 70
     0
102
RTVSPropertyOp14
 70
     0
102
RTVSPropertyOp15
 70
     0
102
RTVSPropertyOp16
 70
     0
102
RTVSPropertyOp17
 70
     0
102
RTVSPropertyOp18
 70
     0
102
RTVSPropertyOp19
 70
     0
102
RTVSPropertyOp20
 70
     0
102
RTVSPropertyOp21
 70
     0
102
RTVSPropertyOp22
 70
     0
102
RTVSPropertyOp23
 70
     0
102
RTVSPropertyOp24
 70
     0
102
RTVSPropertyOp25
 70
     0
102
RTVSPropertyOp26
 70
     0
102
RTVSPropertyOp27
 70
     0
102
RTVSPropertyOp28
 70
     1
102
RTVSPropertyOp29
 70
     1
102
RTVSPropertyOp30
 70
     1
102
RTVSPropertyOp31
 70
     1
102
RTVSPropertyOp32
 70
     1
102
RTVSPropertyOp33
 70
     1
102
RTVSPropertyOp34
 70
     1
102
RTVSPropertyOp35
 70
     1
102
RTVSPropertyOp36
 70
     1
102
RTVSPropertyOp37
 70
     1
102
RTVSPropertyOp38
 70
     1
102
RTVSPropertyOp39
 70
     1
102
RTVSPropertyOp40
 70
     1
102
RTVSPropertyOp41
 70
     1
102
RTVSPropertyOp42
 70
     1
102
RTVSPropertyOp43
 70
     1
102
RTVSPropertyOp44
 70
     1
102
RTVSPropertyOp45
 70
     1
102
RTVSPropertyOp46
 70
     1
102
RTVSPropertyOp47
 70
     1
102
RTVSPropertyOp48
 70
     1
102
RTVSPropertyOp49
 70
     1
102
RTVSPropertyOp50
 70
     1
102
RTVSPropertyOp51
 70
     0
102
RTVSPropertyOp52
 70
     0
102
RTVSPropertyOp53
 70
     1
102
RTVSPropertyOp54
 70
     1
102
RTVSPropertyOp55
 70
     1
102
RTVSPropertyOp56
 70
     1
102
RTVSPropertyOp57
 70
     1
102
RTVSPost2010Prop28
280
     0
102
RTVSPost2010PropOp28
 70
     1
102
RTVSPost2010Prop29
280
     1
102
RTVSPost2010PropOp29
 70
     1
102
RTVSPost2010Prop30
280
     1
102
RTVSPost2010PropOp30
 70
     1
102
RTVSPost2010Prop31
280
     0
102
RTVSPost2010PropOp31
 70
     1
102
RTVSPost2010Prop32
280
     0
102
RTVSPost2010PropOp32
 70
     1
102
RTVSPost2010Prop33
280
     0
102
RTVSPost2010PropOp33
 70
     1
102
RTVSPost2010Prop34
280
     0
102
RTVSPost2010PropOp34
 70
     1
102
RTVSPost2010Prop35
280
     0
102
RTVSPost2010PropOp35
 70
     1
102
RTVSPost2010Prop36
280
     0
102
RTVSPost2010PropOp36
 70
     1
102
RTVSPost2010Prop37
 90
       50
102
RTVSPost2010PropOp37
 70
     1
102
RTVSPost2010Prop38
140
0.0
102
RTVSPost2010PropOp38
 70
     1
102
RTVSPost2010Prop39
140
1.0
102
RTVSPost2010PropOp39
 70
     1
102
RTVSPost2010Prop40
 90
        0
102
RTVSPost2010PropOp40
 70
     1
102
RTVSPost2010Prop41ColorIndex
 90
       18
102
RTVSPost2010Prop41ColorRGB
 90
        0
102
RTVSPost2010PropOp41
 70
     1
102
RTVSPost2010Prop42
 90
       50
102
RTVSPost2010PropOp42
 70
     1
102
RTVSPost2010Prop43
 90
        3
102
RTVSPost2010PropOp43
 70
     1
102
RTVSPost2010Prop44ColorIndex
 90
        5
102
RTVSPost2010Prop44ColorRGB
 90
      255
102
RTVSPost2010PropOp44
 70
     1
102
RTVSPost2010Prop45
280
     0
102
RTVSPost2010PropOp45
 70
     1
102
RTVSPost2010Prop46
 90
       50
102
RTVSPost2010PropOp46
 70
     1
102
RTVSPost2010Prop47
 90
       50
102
RTVSPost2010PropOp47
 70
     1
102
RTVSPost2010Prop48
 90
       50
102
RTVSPost2010PropOp48
 70
     1
102
RTVSPost2010Prop49
280
     0
102
RTVSPost2010PropOp49
 70
     1
102
RTVSPost2010Prop50
 90
       50
102
RTVSPost2010PropOp50
 70
     1
102
RTVSPost2010Prop51ColorIndex
 90
      256
102
RTVSPost2010Prop51ColorRGB
 90
-16777216
102
RTVSPost2010PropOp51
 70
     0
102
RTVSPost2010Prop52
140
1.0
102
RTVSPost2010PropOp52
 70
     0
102
RTVSPost2010Prop53
 90
        2
102
RTVSPost2010PropOp53
 70
     1
102
RTVSPost2010Prop54
  1
strokes_ogs.tif
102
RTVSPost2010PropOp54
 70
     1
102
RTVSPost2010Prop55
280
     0
102
RTVSPost2010PropOp55
 70
     1
102
RTVSPost2010Prop56
140
1.0
102
RTVSPost2010PropOp56
 70
     1
102
RTVSPost2010Prop57
140
1.0
102
RTVSPost2010PropOp57
 70
     1
  0
XRECORD
  5
9C5
102
{ACAD_REACTORS
330
9C4
102
}
330
9C4
100
AcDbXrecord
280
     1
102
RTVSPropertyOp0
 70
     1
102
RTVSPropertyOp1
 70
     1
102
RTVSPropertyOp2
 70
     1
102
RTVSPropertyOp3
 70
     1
102
RTVSPropertyOp4
 70
     1
102
RTVSPropertyOp5
 70
     1
102
RTVSPropertyOp6
 70
     1
102
RTVSPropertyOp7
 70
     1
102
RTVSPropertyOp8
 70
     1
102
RTVSPropertyOp9
 70
     1
102
RTVSPropertyOp10
 70
     1
102
RTVSPropertyOp11
 70
     1
102
RTVSPropertyOp12
 70
     1
102
RTVSPropertyOp13
 70
     1
102
RTVSPropertyOp14
 70
     1
102
RTVSPropertyOp15
 70
     1
102
RTVSPropertyOp16
 70
     1
102
RTVSPropertyOp17
 70
     1
102
RTVSPropertyOp18
 70
     1
102
RTVSPropertyOp19
 70
     1
102
RTVSPropertyOp20
 70
     1
102
RTVSPropertyOp21
 70
     1
102
RTVSPropertyOp22
 70
     1
102
RTVSPropertyOp23
 70
     1
102
RTVSPropertyOp24
 70
     1
102
RTVSPropertyOp25
 70
     1
102
RTVSPropertyOp26
 70
     1
102
RTVSPropertyOp27
 70
     1
102
RTVSPropertyOp28
 70
     1
102
RTVSPropertyOp29
 70
     1
102
RTVSPropertyOp30
 70
     1
102
RTVSPropertyOp31
 70
     1
102
RTVSPropertyOp32
 70
     1
102
RTVSPropertyOp33
 70
     1
102
RTVSPropertyOp34
 70
     1
102
RTVSPropertyOp35
 70
     1
102
RTVSPropertyOp36
 70
     1
102
RTVSPropertyOp37
 70
     1
102
RTVSPropertyOp38
 70
     1
102
RTVSPropertyOp39
 70
     1
102
RTVSPropertyOp40
 70
     1
102
RTVSPropertyOp41
 70
     1
102
RTVSPropertyOp42
 70
     1
102
RTVSPropertyOp43
 70
     1
102
RTVSPropertyOp44
 70
     1
102
RTVSPropertyOp45
 70
     1
102
RTVSPropertyOp46
 70
     1
102
RTVSPropertyOp47
 70
     1
102
RTVSPropertyOp48
 70
     1
102
RTVSPropertyOp49
 70
     1
102
RTVSPropertyOp50
 70
     1
102
RTVSPropertyOp51
 70
     0
102
RTVSPropertyOp52
 70
     0
102
RTVSPropertyOp53
 70
     1
102
RTVSPropertyOp54
 70
     1
102
RTVSPropertyOp55
 70
     1
102
RTVSPropertyOp56
 70
     1
102
RTVSPropertyOp57
 70
     1
102
RTVSPost2010Prop28
280
     0
102
RTVSPost2010PropOp28
 70
     1
102
RTVSPost2010Prop29
280
     1
102
RTVSPost2010PropOp29
 70
     1
102
RTVSPost2010Prop30
280
     1
102
RTVSPost2010PropOp30
 70
     1
102
RTVSPost2010Prop31
280
     0
102
RTVSPost2010PropOp31
 70
     1
102
RTVSPost2010Prop32
280
     0
102
RTVSPost2010PropOp32
 70
     1
102
RTVSPost2010Prop33
280
     0
102
RTVSPost2010PropOp33
 70
     1
102
RTVSPost2010Prop34
280
     0
102
RTVSPost2010PropOp34
 70
     1
102
RTVSPost2010Prop35
280
     0
102
RTVSPost2010PropOp35
 70
     1
102
RTVSPost2010Prop36
280
     0
102
RTVSPost2010PropOp36
 70
     1
102
RTVSPost2010Prop37
 90
       50
102
RTVSPost2010PropOp37
 70
     1
102
RTVSPost2010Prop38
140
0.0
102
RTVSPost2010PropOp38
 70
     1
102
RTVSPost2010Prop39
140
1.0
102
RTVSPost2010PropOp39
 70
     1
102
RTVSPost2010Prop40
 90
        0
102
RTVSPost2010PropOp40
 70
     1
102
RTVSPost2010Prop41ColorIndex
 90
       18
102
RTVSPost2010Prop41ColorRGB
 90
        0
102
RTVSPost2010PropOp41
 70
     1
102
RTVSPost2010Prop42
 90
       50
102
RTVSPost2010PropOp42
 70
     1
102
RTVSPost2010Prop43
 90
        3
102
RTVSPost2010PropOp43
 70
     1
102
RTVSPost2010Prop44ColorIndex
 90
        5
102
RTVSPost2010Prop44ColorRGB
 90
      255
102
RTVSPost2010PropOp44
 70
     1
102
RTVSPost2010Prop45
280
     0
102
RTVSPost2010PropOp45
 70
     1
102
RTVSPost2010Prop46
 90
       50
102
RTVSPost2010PropOp46
 70
     1
102
RTVSPost2010Prop47
 90
       50
102
RTVSPost2010PropOp47
 70
     1
102
RTVSPost2010Prop48
 90
       50
102
RTVSPost2010PropOp48
 70
     1
102
RTVSPost2010Prop49
280
     0
102
RTVSPost2010PropOp49
 70
     1
102
RTVSPost2010Prop50
 90
       50
102
RTVSPost2010PropOp50
 70
     1
102
RTVSPost2010Prop51ColorIndex
 90
      256
102
RTVSPost2010Prop51ColorRGB
 90
-16777216
102
RTVSPost2010PropOp51
 70
     0
102
RTVSPost2010Prop52
140
1.0
102
RTVSPost2010PropOp52
 70
     0
102
RTVSPost2010Prop53
 90
        2
102
RTVSPost2010PropOp53
 70
     1
102
RTVSPost2010Prop54
  1
strokes_ogs.tif
102
RTVSPost2010PropOp54
 70
     1
102
RTVSPost2010Prop55
280
     0
102
RTVSPost2010PropOp55
 70
     1
102
RTVSPost2010Prop56
140
1.0
102
RTVSPost2010PropOp56
 70
     1
102
RTVSPost2010Prop57
140
1.0
102
RTVSPost2010PropOp57
 70
     1
  0
XRECORD
  5
9C7
102
{ACAD_REACTORS
330
9C6
102
}
330
9C6
100
AcDbXrecord
280
     1
102
RTVSPropertyOp0
 70
     1
102
RTVSPropertyOp1
 70
     1
102
RTVSPropertyOp2
 70
     1
102
RTVSPropertyOp3
 70
     1
102
RTVSPropertyOp4
 70
     1
102
RTVSPropertyOp5
 70
     1
102
RTVSPropertyOp6
 70
     1
102
RTVSPropertyOp7
 70
     1
102
RTVSPropertyOp8
 70
     1
102
RTVSPropertyOp9
 70
     1
102
RTVSPropertyOp10
 70
     1
102
RTVSPropertyOp11
 70
     1
102
RTVSPropertyOp12
 70
     1
102
RTVSPropertyOp13
 70
     1
102
RTVSPropertyOp14
 70
     1
102
RTVSPropertyOp15
 70
     1
102
RTVSPropertyOp16
 70
     1
102
RTVSPropertyOp17
 70
     1
102
RTVSPropertyOp18
 70
     1
102
RTVSPropertyOp19
 70
     1
102
RTVSPropertyOp20
 70
     1
102
RTVSPropertyOp21
 70
     1
102
RTVSPropertyOp22
 70
     1
102
RTVSPropertyOp23
 70
     1
102
RTVSPropertyOp24
 70
     1
102
RTVSPropertyOp25
 70
     1
102
RTVSPropertyOp26
 70
     1
102
RTVSPropertyOp27
 70
     1
102
RTVSPropertyOp28
 70
     1
102
RTVSPropertyOp29
 70
     1
102
RTVSPropertyOp30
 70
     1
102
RTVSPropertyOp31
 70
     1
102
RTVSPropertyOp32
 70
     1
102
RTVSPropertyOp33
 70
     1
102
RTVSPropertyOp34
 70
     1
102
RTVSPropertyOp35
 70
     1
102
RTVSPropertyOp36
 70
     1
102
RTVSPropertyOp37
 70
     1
102
RTVSPropertyOp38
 70
     1
102
RTVSPropertyOp39
 70
     1
102
RTVSPropertyOp40
 70
     1
102
RTVSPropertyOp41
 70
     1
102
RTVSPropertyOp42
 70
     1
102
RTVSPropertyOp43
 70
     1
102
RTVSPropertyOp44
 70
     1
102
RTVSPropertyOp45
 70
     1
102
RTVSPropertyOp46
 70
     1
102
RTVSPropertyOp47
 70
     1
102
RTVSPropertyOp48
 70
     1
102
RTVSPropertyOp49
 70
     1
102
RTVSPropertyOp50
 70
     1
102
RTVSPropertyOp51
 70
     0
102
RTVSPropertyOp52
 70
     0
102
RTVSPropertyOp53
 70
     1
102
RTVSPropertyOp54
 70
     1
102
RTVSPropertyOp55
 70
     1
102
RTVSPropertyOp56
 70
     1
102
RTVSPropertyOp57
 70
     1
102
RTVSPost2010Prop28
280
     0
102
RTVSPost2010PropOp28
 70
     1
102
RTVSPost2010Prop29
280
     1
102
RTVSPost2010PropOp29
 70
     1
102
RTVSPost2010Prop30
280
     1
102
RTVSPost2010PropOp30
 70
     1
102
RTVSPost2010Prop31
280
     0
102
RTVSPost2010PropOp31
 70
     1
102
RTVSPost2010Prop32
280
     0
102
RTVSPost2010PropOp32
 70
     1
102
RTVSPost2010Prop33
280
     0
102
RTVSPost2010PropOp33
 70
     1
102
RTVSPost2010Prop34
280
     0
102
RTVSPost2010PropOp34
 70
     1
102
RTVSPost2010Prop35
280
     0
102
RTVSPost2010PropOp35
 70
     1
102
RTVSPost2010Prop36
280
     0
102
RTVSPost2010PropOp36
 70
     1
102
RTVSPost2010Prop37
 90
       50
102
RTVSPost2010PropOp37
 70
     1
102
RTVSPost2010Prop38
140
0.0
102
RTVSPost2010PropOp38
 70
     1
102
RTVSPost2010Prop39
140
1.0
102
RTVSPost2010PropOp39
 70
     1
102
RTVSPost2010Prop40
 90
        0
102
RTVSPost2010PropOp40
 70
     1
102
RTVSPost2010Prop41ColorIndex
 90
       18
102
RTVSPost2010Prop41ColorRGB
 90
        0
102
RTVSPost2010PropOp41
 70
     1
102
RTVSPost2010Prop42
 90
       50
102
RTVSPost2010PropOp42
 70
     1
102
RTVSPost2010Prop43
 90
        3
102
RTVSPost2010PropOp43
 70
     1
102
RTVSPost2010Prop44ColorIndex
 90
        5
102
RTVSPost2010Prop44ColorRGB
 90
      255
102
RTVSPost2010PropOp44
 70
     1
102
RTVSPost2010Prop45
280
     0
102
RTVSPost2010PropOp45
 70
     1
102
RTVSPost2010Prop46
 90
       50
102
RTVSPost2010PropOp46
 70
     1
102
RTVSPost2010Prop47
 90
       50
102
RTVSPost2010PropOp47
 70
     1
102
RTVSPost2010Prop48
 90
       50
102
RTVSPost2010PropOp48
 70
     1
102
RTVSPost2010Prop49
280
     0
102
RTVSPost2010PropOp49
 70
     1
102
RTVSPost2010Prop50
 90
       50
102
RTVSPost2010PropOp50
 70
     1
102
RTVSPost2010Prop51ColorIndex
 90
      256
102
RTVSPost2010Prop51ColorRGB
 90
-16777216
102
RTVSPost2010PropOp51
 70
     0
102
RTVSPost2010Prop52
140
1.0
102
RTVSPost2010PropOp52
 70
     0
102
RTVSPost2010Prop53
 90
        2
102
RTVSPost2010PropOp53
 70
     1
102
RTVSPost2010Prop54
  1
strokes_ogs.tif
102
RTVSPost2010PropOp54
 70
     1
102
RTVSPost2010Prop55
280
     0
102
RTVSPost2010PropOp55
 70
     1
102
RTVSPost2010Prop56
140
1.0
102
RTVSPost2010PropOp56
 70
     1
102
RTVSPost2010Prop57
140
1.0
102
RTVSPost2010PropOp57
 70
     1
  0
XRECORD
  5
9C9
102
{ACAD_REACTORS
330
9C8
102
}
330
9C8
100
AcDbXrecord
280
     1
102
RTVSPropertyOp0
 70
     1
102
RTVSPropertyOp1
 70
     1
102
RTVSPropertyOp2
 70
     1
102
RTVSPropertyOp3
 70
     1
102
RTVSPropertyOp4
 70
     1
102
RTVSPropertyOp5
 70
     1
102
RTVSPropertyOp6
 70
     1
102
RTVSPropertyOp7
 70
     1
102
RTVSPropertyOp8
 70
     1
102
RTVSPropertyOp9
 70
     1
102
RTVSPropertyOp10
 70
     1
102
RTVSPropertyOp11
 70
     1
102
RTVSPropertyOp12
 70
     1
102
RTVSPropertyOp13
 70
     1
102
RTVSPropertyOp14
 70
     1
102
RTVSPropertyOp15
 70
     1
102
RTVSPropertyOp16
 70
     1
102
RTVSPropertyOp17
 70
     1
102
RTVSPropertyOp18
 70
     1
102
RTVSPropertyOp19
 70
     1
102
RTVSPropertyOp20
 70
     1
102
RTVSPropertyOp21
 70
     1
102
RTVSPropertyOp22
 70
     1
102
RTVSPropertyOp23
 70
     1
102
RTVSPropertyOp24
 70
     1
102
RTVSPropertyOp25
 70
     1
102
RTVSPropertyOp26
 70
     1
102
RTVSPropertyOp27
 70
     1
102
RTVSPropertyOp28
 70
     1
102
RTVSPropertyOp29
 70
     1
102
RTVSPropertyOp30
 70
     1
102
RTVSPropertyOp31
 70
     1
102
RTVSPropertyOp32
 70
     1
102
RTVSPropertyOp33
 70
     1
102
RTVSPropertyOp34
 70
     1
102
RTVSPropertyOp35
 70
     1
102
RTVSPropertyOp36
 70
     1
102
RTVSPropertyOp37
 70
     1
102
RTVSPropertyOp38
 70
     1
102
RTVSPropertyOp39
 70
     1
102
RTVSPropertyOp40
 70
     1
102
RTVSPropertyOp41
 70
     1
102
RTVSPropertyOp42
 70
     1
102
RTVSPropertyOp43
 70
     1
102
RTVSPropertyOp44
 70
     1
102
RTVSPropertyOp45
 70
     1
102
RTVSPropertyOp46
 70
     1
102
RTVSPropertyOp47
 70
     1
102
RTVSPropertyOp48
 70
     1
102
RTVSPropertyOp49
 70
     1
102
RTVSPropertyOp50
 70
     1
102
RTVSPropertyOp51
 70
     0
102
RTVSPropertyOp52
 70
     0
102
RTVSPropertyOp53
 70
     1
102
RTVSPropertyOp54
 70
     1
102
RTVSPropertyOp55
 70
     1
102
RTVSPropertyOp56
 70
     1
102
RTVSPropertyOp57
 70
     1
102
RTVSPost2010Prop28
280
     0
102
RTVSPost2010PropOp28
 70
     1
102
RTVSPost2010Prop29
280
     1
102
RTVSPost2010PropOp29
 70
     1
102
RTVSPost2010Prop30
280
     1
102
RTVSPost2010PropOp30
 70
     1
102
RTVSPost2010Prop31
280
     0
102
RTVSPost2010PropOp31
 70
     1
102
RTVSPost2010Prop32
280
     0
102
RTVSPost2010PropOp32
 70
     1
102
RTVSPost2010Prop33
280
     0
102
RTVSPost2010PropOp33
 70
     1
102
RTVSPost2010Prop34
280
     0
102
RTVSPost2010PropOp34
 70
     1
102
RTVSPost2010Prop35
280
     0
102
RTVSPost2010PropOp35
 70
     1
102
RTVSPost2010Prop36
280
     0
102
RTVSPost2010PropOp36
 70
     1
102
RTVSPost2010Prop37
 90
       50
102
RTVSPost2010PropOp37
 70
     1
102
RTVSPost2010Prop38
140
0.0
102
RTVSPost2010PropOp38
 70
     1
102
RTVSPost2010Prop39
140
1.0
102
RTVSPost2010PropOp39
 70
     1
102
RTVSPost2010Prop40
 90
        0
102
RTVSPost2010PropOp40
 70
     1
102
RTVSPost2010Prop41ColorIndex
 90
       18
102
RTVSPost2010Prop41ColorRGB
 90
        0
102
RTVSPost2010PropOp41
 70
     1
102
RTVSPost2010Prop42
 90
       50
102
RTVSPost2010PropOp42
 70
     1
102
RTVSPost2010Prop43
 90
        3
102
RTVSPost2010PropOp43
 70
     1
102
RTVSPost2010Prop44ColorIndex
 90
        5
102
RTVSPost2010Prop44ColorRGB
 90
      255
102
RTVSPost2010PropOp44
 70
     1
102
RTVSPost2010Prop45
280
     0
102
RTVSPost2010PropOp45
 70
     1
102
RTVSPost2010Prop46
 90
       50
102
RTVSPost2010PropOp46
 70
     1
102
RTVSPost2010Prop47
 90
       50
102
RTVSPost2010PropOp47
 70
     1
102
RTVSPost2010Prop48
 90
       50
102
RTVSPost2010PropOp48
 70
     1
102
RTVSPost2010Prop49
280
     0
102
RTVSPost2010PropOp49
 70
     1
102
RTVSPost2010Prop50
 90
       50
102
RTVSPost2010PropOp50
 70
     1
102
RTVSPost2010Prop51ColorIndex
 90
      256
102
RTVSPost2010Prop51ColorRGB
 90
-16777216
102
RTVSPost2010PropOp51
 70
     0
102
RTVSPost2010Prop52
140
1.0
102
RTVSPost2010PropOp52
 70
     0
102
RTVSPost2010Prop53
 90
        2
102
RTVSPost2010PropOp53
 70
     1
102
RTVSPost2010Prop54
  1
strokes_ogs.tif
102
RTVSPost2010PropOp54
 70
     1
102
RTVSPost2010Prop55
280
     0
102
RTVSPost2010PropOp55
 70
     1
102
RTVSPost2010Prop56
140
1.0
102
RTVSPost2010PropOp56
 70
     1
102
RTVSPost2010Prop57
140
1.0
102
RTVSPost2010PropOp57
 70
     1
  0
XRECORD
  5
9CB
102
{ACAD_REACTORS
330
9CA
102
}
330
9CA
100
AcDbXrecord
280
     1
102
RTVSPropertyOp0
 70
     1
102
RTVSPropertyOp1
 70
     1
102
RTVSPropertyOp2
 70
     1
102
RTVSPropertyOp3
 70
     1
102
RTVSPropertyOp4
 70
     1
102
RTVSPropertyOp5
 70
     1
102
RTVSPropertyOp6
 70
     1
102
RTVSPropertyOp7
 70
     1
102
RTVSPropertyOp8
 70
     1
102
RTVSPropertyOp9
 70
     1
102
RTVSPropertyOp10
 70
     1
102
RTVSPropertyOp11
 70
     1
102
RTVSPropertyOp12
 70
     1
102
RTVSPropertyOp13
 70
     1
102
RTVSPropertyOp14
 70
     1
102
RTVSPropertyOp15
 70
     1
102
RTVSPropertyOp16
 70
     1
102
RTVSPropertyOp17
 70
     1
102
RTVSPropertyOp18
 70
     1
102
RTVSPropertyOp19
 70
     1
102
RTVSPropertyOp20
 70
     1
102
RTVSPropertyOp21
 70
     1
102
RTVSPropertyOp22
 70
     1
102
RTVSPropertyOp23
 70
     1
102
RTVSPropertyOp24
 70
     1
102
RTVSPropertyOp25
 70
     1
102
RTVSPropertyOp26
 70
     1
102
RTVSPropertyOp27
 70
     1
102
RTVSPropertyOp28
 70
     1
102
RTVSPropertyOp29
 70
     1
102
RTVSPropertyOp30
 70
     1
102
RTVSPropertyOp31
 70
     1
102
RTVSPropertyOp32
 70
     1
102
RTVSPropertyOp33
 70
     1
102
RTVSPropertyOp34
 70
     1
102
RTVSPropertyOp35
 70
     1
102
RTVSPropertyOp36
 70
     1
102
RTVSPropertyOp37
 70
     1
102
RTVSPropertyOp38
 70
     1
102
RTVSPropertyOp39
 70
     1
102
RTVSPropertyOp40
 70
     1
102
RTVSPropertyOp41
 70
     1
102
RTVSPropertyOp42
 70
     1
102
RTVSPropertyOp43
 70
     1
102
RTVSPropertyOp44
 70
     1
102
RTVSPropertyOp45
 70
     1
102
RTVSPropertyOp46
 70
     1
102
RTVSPropertyOp47
 70
     1
102
RTVSPropertyOp48
 70
     1
102
RTVSPropertyOp49
 70
     1
102
RTVSPropertyOp50
 70
     1
102
RTVSPropertyOp51
 70
     0
102
RTVSPropertyOp52
 70
     0
102
RTVSPropertyOp53
 70
     1
102
RTVSPropertyOp54
 70
     1
102
RTVSPropertyOp55
 70
     1
102
RTVSPropertyOp56
 70
     1
102
RTVSPropertyOp57
 70
     1
102
RTVSPost2010Prop28
280
     0
102
RTVSPost2010PropOp28
 70
     1
102
RTVSPost2010Prop29
280
     1
102
RTVSPost2010PropOp29
 70
     1
102
RTVSPost2010Prop30
280
     1
102
RTVSPost2010PropOp30
 70
     1
102
RTVSPost2010Prop31
280
     0
102
RTVSPost2010PropOp31
 70
     1
102
RTVSPost2010Prop32
280
     0
102
RTVSPost2010PropOp32
 70
     1
102
RTVSPost2010Prop33
280
     0
102
RTVSPost2010PropOp33
 70
     1
102
RTVSPost2010Prop34
280
     0
102
RTVSPost2010PropOp34
 70
     1
102
RTVSPost2010Prop35
280
     0
102
RTVSPost2010PropOp35
 70
     1
102
RTVSPost2010Prop36
280
     0
102
RTVSPost2010PropOp36
 70
     1
102
RTVSPost2010Prop37
 90
       50
102
RTVSPost2010PropOp37
 70
     1
102
RTVSPost2010Prop38
140
0.0
102
RTVSPost2010PropOp38
 70
     1
102
RTVSPost2010Prop39
140
1.0
102
RTVSPost2010PropOp39
 70
     1
102
RTVSPost2010Prop40
 90
        0
102
RTVSPost2010PropOp40
 70
     1
102
RTVSPost2010Prop41ColorIndex
 90
       18
102
RTVSPost2010Prop41ColorRGB
 90
        0
102
RTVSPost2010PropOp41
 70
     1
102
RTVSPost2010Prop42
 90
       50
102
RTVSPost2010PropOp42
 70
     1
102
RTVSPost2010Prop43
 90
        3
102
RTVSPost2010PropOp43
 70
     1
102
RTVSPost2010Prop44ColorIndex
 90
        5
102
RTVSPost2010Prop44ColorRGB
 90
      255
102
RTVSPost2010PropOp44
 70
     1
102
RTVSPost2010Prop45
280
     0
102
RTVSPost2010PropOp45
 70
     1
102
RTVSPost2010Prop46
 90
       50
102
RTVSPost2010PropOp46
 70
     1
102
RTVSPost2010Prop47
 90
       50
102
RTVSPost2010PropOp47
 70
     1
102
RTVSPost2010Prop48
 90
       50
102
RTVSPost2010PropOp48
 70
     1
102
RTVSPost2010Prop49
280
     0
102
RTVSPost2010PropOp49
 70
     1
102
RTVSPost2010Prop50
 90
       50
102
RTVSPost2010PropOp50
 70
     1
102
RTVSPost2010Prop51ColorIndex
 90
      256
102
RTVSPost2010Prop51ColorRGB
 90
-16777216
102
RTVSPost2010PropOp51
 70
     0
102
RTVSPost2010Prop52
140
1.0
102
RTVSPost2010PropOp52
 70
     0
102
RTVSPost2010Prop53
 90
        2
102
RTVSPost2010PropOp53
 70
     1
102
RTVSPost2010Prop54
  1
strokes_ogs.tif
102
RTVSPost2010PropOp54
 70
     1
102
RTVSPost2010Prop55
280
     0
102
RTVSPost2010PropOp55
 70
     1
102
RTVSPost2010Prop56
140
1.0
102
RTVSPost2010PropOp56
 70
     1
102
RTVSPost2010Prop57
140
1.0
102
RTVSPost2010PropOp57
 70
     1
  0
XRECORD
  5
9CD
102
{ACAD_REACTORS
330
9CC
102
}
330
9CC
100
AcDbXrecord
280
     1
102
RTVSPropertyOp0
 70
     1
102
RTVSPropertyOp1
 70
     1
102
RTVSPropertyOp2
 70
     1
102
RTVSPropertyOp3
 70
     1
102
RTVSPropertyOp4
 70
     1
102
RTVSPropertyOp5
 70
     1
102
RTVSPropertyOp6
 70
     1
102
RTVSPropertyOp7
 70
     1
102
RTVSPropertyOp8
 70
     1
102
RTVSPropertyOp9
 70
     1
102
RTVSPropertyOp10
 70
     1
102
RTVSPropertyOp11
 70
     1
102
RTVSPropertyOp12
 70
     1
102
RTVSPropertyOp13
 70
     1
102
RTVSPropertyOp14
 70
     1
102
RTVSPropertyOp15
 70
     1
102
RTVSPropertyOp16
 70
     1
102
RTVSPropertyOp17
 70
     1
102
RTVSPropertyOp18
 70
     1
102
RTVSPropertyOp19
 70
     1
102
RTVSPropertyOp20
 70
     1
102
RTVSPropertyOp21
 70
     1
102
RTVSPropertyOp22
 70
     1
102
RTVSPropertyOp23
 70
     1
102
RTVSPropertyOp24
 70
     1
102
RTVSPropertyOp25
 70
     1
102
RTVSPropertyOp26
 70
     1
102
RTVSPropertyOp27
 70
     1
102
RTVSPropertyOp28
 70
     1
102
RTVSPropertyOp29
 70
     1
102
RTVSPropertyOp30
 70
     1
102
RTVSPropertyOp31
 70
     1
102
RTVSPropertyOp32
 70
     1
102
RTVSPropertyOp33
 70
     1
102
RTVSPropertyOp34
 70
     1
102
RTVSPropertyOp35
 70
     1
102
RTVSPropertyOp36
 70
     1
102
RTVSPropertyOp37
 70
     1
102
RTVSPropertyOp38
 70
     1
102
RTVSPropertyOp39
 70
     1
102
RTVSPropertyOp40
 70
     1
102
RTVSPropertyOp41
 70
     1
102
RTVSPropertyOp42
 70
     1
102
RTVSPropertyOp43
 70
     1
102
RTVSPropertyOp44
 70
     1
102
RTVSPropertyOp45
 70
     1
102
RTVSPropertyOp46
 70
     1
102
RTVSPropertyOp47
 70
     1
102
RTVSPropertyOp48
 70
     1
102
RTVSPropertyOp49
 70
     1
102
RTVSPropertyOp50
 70
     1
102
RTVSPropertyOp51
 70
     0
102
RTVSPropertyOp52
 70
     0
102
RTVSPropertyOp53
 70
     1
102
RTVSPropertyOp54
 70
     1
102
RTVSPropertyOp55
 70
     1
102
RTVSPropertyOp56
 70
     1
102
RTVSPropertyOp57
 70
     1
102
RTVSPost2010Prop28
280
     0
102
RTVSPost2010PropOp28
 70
     1
102
RTVSPost2010Prop29
280
     1
102
RTVSPost2010PropOp29
 70
     1
102
RTVSPost2010Prop30
280
     1
102
RTVSPost2010PropOp30
 70
     1
102
RTVSPost2010Prop31
280
     0
102
RTVSPost2010PropOp31
 70
     1
102
RTVSPost2010Prop32
280
     0
102
RTVSPost2010PropOp32
 70
     1
102
RTVSPost2010Prop33
280
     0
102
RTVSPost2010PropOp33
 70
     1
102
RTVSPost2010Prop34
280
     0
102
RTVSPost2010PropOp34
 70
     1
102
RTVSPost2010Prop35
280
     0
102
RTVSPost2010PropOp35
 70
     1
102
RTVSPost2010Prop36
280
     0
102
RTVSPost2010PropOp36
 70
     1
102
RTVSPost2010Prop37
 90
       50
102
RTVSPost2010PropOp37
 70
     1
102
RTVSPost2010Prop38
140
0.0
102
RTVSPost2010PropOp38
 70
     1
102
RTVSPost2010Prop39
140
1.0
102
RTVSPost2010PropOp39
 70
     1
102
RTVSPost2010Prop40
 90
        0
102
RTVSPost2010PropOp40
 70
     1
102
RTVSPost2010Prop41ColorIndex
 90
       18
102
RTVSPost2010Prop41ColorRGB
 90
        0
102
RTVSPost2010PropOp41
 70
     1
102
RTVSPost2010Prop42
 90
       50
102
RTVSPost2010PropOp42
 70
     1
102
RTVSPost2010Prop43
 90
        3
102
RTVSPost2010PropOp43
 70
     1
102
RTVSPost2010Prop44ColorIndex
 90
        5
102
RTVSPost2010Prop44ColorRGB
 90
      255
102
RTVSPost2010PropOp44
 70
     1
102
RTVSPost2010Prop45
280
     0
102
RTVSPost2010PropOp45
 70
     1
102
RTVSPost2010Prop46
 90
       50
102
RTVSPost2010PropOp46
 70
     1
102
RTVSPost2010Prop47
 90
       50
102
RTVSPost2010PropOp47
 70
     1
102
RTVSPost2010Prop48
 90
       50
102
RTVSPost2010PropOp48
 70
     1
102
RTVSPost2010Prop49
280
     0
102
RTVSPost2010PropOp49
 70
     1
102
RTVSPost2010Prop50
 90
       50
102
RTVSPost2010PropOp50
 70
     1
102
RTVSPost2010Prop51ColorIndex
 90
      256
102
RTVSPost2010Prop51ColorRGB
 90
-16777216
102
RTVSPost2010PropOp51
 70
     0
102
RTVSPost2010Prop52
140
1.0
102
RTVSPost2010PropOp52
 70
     0
102
RTVSPost2010Prop53
 90
        2
102
RTVSPost2010PropOp53
 70
     1
102
RTVSPost2010Prop54
  1
strokes_ogs.tif
102
RTVSPost2010PropOp54
 70
     1
102
RTVSPost2010Prop55
280
     0
102
RTVSPost2010PropOp55
 70
     1
102
RTVSPost2010Prop56
140
1.0
102
RTVSPost2010PropOp56
 70
     1
102
RTVSPost2010Prop57
140
1.0
102
RTVSPost2010PropOp57
 70
     1
  0
XRECORD
  5
9CF
102
{ACAD_REACTORS
330
9CE
102
}
330
9CE
100
AcDbXrecord
280
     1
102
RTVSPropertyOp0
 70
     1
102
RTVSPropertyOp1
 70
     1
102
RTVSPropertyOp2
 70
     1
102
RTVSPropertyOp3
 70
     1
102
RTVSPropertyOp4
 70
     1
102
RTVSPropertyOp5
 70
     1
102
RTVSPropertyOp6
 70
     1
102
RTVSPropertyOp7
 70
     1
102
RTVSPropertyOp8
 70
     1
102
RTVSPropertyOp9
 70
     1
102
RTVSPropertyOp10
 70
     1
102
RTVSPropertyOp11
 70
     1
102
RTVSPropertyOp12
 70
     1
102
RTVSPropertyOp13
 70
     1
102
RTVSPropertyOp14
 70
     1
102
RTVSPropertyOp15
 70
     1
102
RTVSPropertyOp16
 70
     1
102
RTVSPropertyOp17
 70
     1
102
RTVSPropertyOp18
 70
     1
102
RTVSPropertyOp19
 70
     1
102
RTVSPropertyOp20
 70
     1
102
RTVSPropertyOp21
 70
     1
102
RTVSPropertyOp22
 70
     1
102
RTVSPropertyOp23
 70
     1
102
RTVSPropertyOp24
 70
     1
102
RTVSPropertyOp25
 70
     1
102
RTVSPropertyOp26
 70
     1
102
RTVSPropertyOp27
 70
     1
102
RTVSPropertyOp28
 70
     1
102
RTVSPropertyOp29
 70
     1
102
RTVSPropertyOp30
 70
     1
102
RTVSPropertyOp31
 70
     1
102
RTVSPropertyOp32
 70
     1
102
RTVSPropertyOp33
 70
     1
102
RTVSPropertyOp34
 70
     1
102
RTVSPropertyOp35
 70
     1
102
RTVSPropertyOp36
 70
     1
102
RTVSPropertyOp37
 70
     1
102
RTVSPropertyOp38
 70
     1
102
RTVSPropertyOp39
 70
     1
102
RTVSPropertyOp40
 70
     1
102
RTVSPropertyOp41
 70
     1
102
RTVSPropertyOp42
 70
     1
102
RTVSPropertyOp43
 70
     1
102
RTVSPropertyOp44
 70
     1
102
RTVSPropertyOp45
 70
     1
102
RTVSPropertyOp46
 70
     1
102
RTVSPropertyOp47
 70
     1
102
RTVSPropertyOp48
 70
     1
102
RTVSPropertyOp49
 70
     1
102
RTVSPropertyOp50
 70
     1
102
RTVSPropertyOp51
 70
     0
102
RTVSPropertyOp52
 70
     0
102
RTVSPropertyOp53
 70
     1
102
RTVSPropertyOp54
 70
     1
102
RTVSPropertyOp55
 70
     1
102
RTVSPropertyOp56
 70
     1
102
RTVSPropertyOp57
 70
     1
102
RTVSPost2010Prop28
280
     0
102
RTVSPost2010PropOp28
 70
     1
102
RTVSPost2010Prop29
280
     1
102
RTVSPost2010PropOp29
 70
     1
102
RTVSPost2010Prop30
280
     1
102
RTVSPost2010PropOp30
 70
     1
102
RTVSPost2010Prop31
280
     0
102
RTVSPost2010PropOp31
 70
     1
102
RTVSPost2010Prop32
280
     0
102
RTVSPost2010PropOp32
 70
     1
102
RTVSPost2010Prop33
280
     0
102
RTVSPost2010PropOp33
 70
     1
102
RTVSPost2010Prop34
280
     0
102
RTVSPost2010PropOp34
 70
     1
102
RTVSPost2010Prop35
280
     0
102
RTVSPost2010PropOp35
 70
     1
102
RTVSPost2010Prop36
280
     0
102
RTVSPost2010PropOp36
 70
     1
102
RTVSPost2010Prop37
 90
       50
102
RTVSPost2010PropOp37
 70
     1
102
RTVSPost2010Prop38
140
0.0
102
RTVSPost2010PropOp38
 70
     1
102
RTVSPost2010Prop39
140
1.0
102
RTVSPost2010PropOp39
 70
     1
102
RTVSPost2010Prop40
 90
        0
102
RTVSPost2010PropOp40
 70
     1
102
RTVSPost2010Prop41ColorIndex
 90
       18
102
RTVSPost2010Prop41ColorRGB
 90
        0
102
RTVSPost2010PropOp41
 70
     1
102
RTVSPost2010Prop42
 90
       50
102
RTVSPost2010PropOp42
 70
     1
102
RTVSPost2010Prop43
 90
        3
102
RTVSPost2010PropOp43
 70
     1
102
RTVSPost2010Prop44ColorIndex
 90
        5
102
RTVSPost2010Prop44ColorRGB
 90
      255
102
RTVSPost2010PropOp44
 70
     1
102
RTVSPost2010Prop45
280
     0
102
RTVSPost2010PropOp45
 70
     1
102
RTVSPost2010Prop46
 90
       50
102
RTVSPost2010PropOp46
 70
     1
102
RTVSPost2010Prop47
 90
       50
102
RTVSPost2010PropOp47
 70
     1
102
RTVSPost2010Prop48
 90
       50
102
RTVSPost2010PropOp48
 70
     1
102
RTVSPost2010Prop49
280
     0
102
RTVSPost2010PropOp49
 70
     1
102
RTVSPost2010Prop50
 90
       50
102
RTVSPost2010PropOp50
 70
     1
102
RTVSPost2010Prop51ColorIndex
 90
      256
102
RTVSPost2010Prop51ColorRGB
 90
-16777216
102
RTVSPost2010PropOp51
 70
     0
102
RTVSPost2010Prop52
140
1.0
102
RTVSPost2010PropOp52
 70
     0
102
RTVSPost2010Prop53
 90
        2
102
RTVSPost2010PropOp53
 70
     1
102
RTVSPost2010Prop54
  1
strokes_ogs.tif
102
RTVSPost2010PropOp54
 70
     1
102
RTVSPost2010Prop55
280
     0
102
RTVSPost2010PropOp55
 70
     1
102
RTVSPost2010Prop56
140
1.0
102
RTVSPost2010PropOp56
 70
     1
102
RTVSPost2010Prop57
140
1.0
102
RTVSPost2010PropOp57
 70
     1
  0
XRECORD
  5
9D1
102
{ACAD_REACTORS
330
9D0
102
}
330
9D0
100
AcDbXrecord
280
     1
102
RTVSPropertyOp0
 70
     1
102
RTVSPropertyOp1
 70
     1
102
RTVSPropertyOp2
 70
     1
102
RTVSPropertyOp3
 70
     1
102
RTVSPropertyOp4
 70
     1
102
RTVSPropertyOp5
 70
     1
102
RTVSPropertyOp6
 70
     1
102
RTVSPropertyOp7
 70
     1
102
RTVSPropertyOp8
 70
     1
102
RTVSPropertyOp9
 70
     1
102
RTVSPropertyOp10
 70
     1
102
RTVSPropertyOp11
 70
     1
102
RTVSPropertyOp12
 70
     1
102
RTVSPropertyOp13
 70
     1
102
RTVSPropertyOp14
 70
     1
102
RTVSPropertyOp15
 70
     1
102
RTVSPropertyOp16
 70
     1
102
RTVSPropertyOp17
 70
     1
102
RTVSPropertyOp18
 70
     1
102
RTVSPropertyOp19
 70
     1
102
RTVSPropertyOp20
 70
     1
102
RTVSPropertyOp21
 70
     1
102
RTVSPropertyOp22
 70
     1
102
RTVSPropertyOp23
 70
     1
102
RTVSPropertyOp24
 70
     1
102
RTVSPropertyOp25
 70
     1
102
RTVSPropertyOp26
 70
     1
102
RTVSPropertyOp27
 70
     1
102
RTVSPropertyOp28
 70
     1
102
RTVSPropertyOp29
 70
     1
102
RTVSPropertyOp30
 70
     1
102
RTVSPropertyOp31
 70
     1
102
RTVSPropertyOp32
 70
     1
102
RTVSPropertyOp33
 70
     1
102
RTVSPropertyOp34
 70
     1
102
RTVSPropertyOp35
 70
     1
102
RTVSPropertyOp36
 70
     1
102
RTVSPropertyOp37
 70
     1
102
RTVSPropertyOp38
 70
     1
102
RTVSPropertyOp39
 70
     1
102
RTVSPropertyOp40
 70
     1
102
RTVSPropertyOp41
 70
     1
102
RTVSPropertyOp42
 70
     1
102
RTVSPropertyOp43
 70
     1
102
RTVSPropertyOp44
 70
     1
102
RTVSPropertyOp45
 70
     1
102
RTVSPropertyOp46
 70
     1
102
RTVSPropertyOp47
 70
     1
102
RTVSPropertyOp48
 70
     1
102
RTVSPropertyOp49
 70
     1
102
RTVSPropertyOp50
 70
     1
102
RTVSPropertyOp51
 70
     0
102
RTVSPropertyOp52
 70
     0
102
RTVSPropertyOp53
 70
     1
102
RTVSPropertyOp54
 70
     1
102
RTVSPropertyOp55
 70
     1
102
RTVSPropertyOp56
 70
     1
102
RTVSPropertyOp57
 70
     1
102
RTVSPost2010Prop28
280
     0
102
RTVSPost2010PropOp28
 70
     1
102
RTVSPost2010Prop29
280
     1
102
RTVSPost2010PropOp29
 70
     1
102
RTVSPost2010Prop30
280
     1
102
RTVSPost2010PropOp30
 70
     1
102
RTVSPost2010Prop31
280
     0
102
RTVSPost2010PropOp31
 70
     1
102
RTVSPost2010Prop32
280
     0
102
RTVSPost2010PropOp32
 70
     1
102
RTVSPost2010Prop33
280
     0
102
RTVSPost2010PropOp33
 70
     1
102
RTVSPost2010Prop34
280
     0
102
RTVSPost2010PropOp34
 70
     1
102
RTVSPost2010Prop35
280
     0
102
RTVSPost2010PropOp35
 70
     1
102
RTVSPost2010Prop36
280
     0
102
RTVSPost2010PropOp36
 70
     1
102
RTVSPost2010Prop37
 90
       50
102
RTVSPost2010PropOp37
 70
     1
102
RTVSPost2010Prop38
140
0.0
102
RTVSPost2010PropOp38
 70
     1
102
RTVSPost2010Prop39
140
1.0
102
RTVSPost2010PropOp39
 70
     1
102
RTVSPost2010Prop40
 90
        0
102
RTVSPost2010PropOp40
 70
     1
102
RTVSPost2010Prop41ColorIndex
 90
       18
102
RTVSPost2010Prop41ColorRGB
 90
        0
102
RTVSPost2010PropOp41
 70
     1
102
RTVSPost2010Prop42
 90
       50
102
RTVSPost2010PropOp42
 70
     1
102
RTVSPost2010Prop43
 90
        3
102
RTVSPost2010PropOp43
 70
     1
102
RTVSPost2010Prop44ColorIndex
 90
        5
102
RTVSPost2010Prop44ColorRGB
 90
      255
102
RTVSPost2010PropOp44
 70
     1
102
RTVSPost2010Prop45
280
     0
102
RTVSPost2010PropOp45
 70
     1
102
RTVSPost2010Prop46
 90
       50
102
RTVSPost2010PropOp46
 70
     1
102
RTVSPost2010Prop47
 90
       50
102
RTVSPost2010PropOp47
 70
     1
102
RTVSPost2010Prop48
 90
       50
102
RTVSPost2010PropOp48
 70
     1
102
RTVSPost2010Prop49
280
     0
102
RTVSPost2010PropOp49
 70
     1
102
RTVSPost2010Prop50
 90
       50
102
RTVSPost2010PropOp50
 70
     1
102
RTVSPost2010Prop51ColorIndex
 90
      256
102
RTVSPost2010Prop51ColorRGB
 90
-16777216
102
RTVSPost2010PropOp51
 70
     0
102
RTVSPost2010Prop52
140
1.0
102
RTVSPost2010PropOp52
 70
     0
102
RTVSPost2010Prop53
 90
        2
102
RTVSPost2010PropOp53
 70
     1
102
RTVSPost2010Prop54
  1
strokes_ogs.tif
102
RTVSPost2010PropOp54
 70
     1
102
RTVSPost2010Prop55
280
     0
102
RTVSPost2010PropOp55
 70
     1
102
RTVSPost2010Prop56
140
1.0
102
RTVSPost2010PropOp56
 70
     1
102
RTVSPost2010Prop57
140
1.0
102
RTVSPost2010PropOp57
 70
     1
  0
XRECORD
  5
9D3
102
{ACAD_REACTORS
330
9D2
102
}
330
9D2
100
AcDbXrecord
280
     1
102
RTVSPropertyOp0
 70
     1
102
RTVSPropertyOp1
 70
     1
102
RTVSPropertyOp2
 70
     1
102
RTVSPropertyOp3
 70
     1
102
RTVSPropertyOp4
 70
     1
102
RTVSPropertyOp5
 70
     1
102
RTVSPropertyOp6
 70
     1
102
RTVSPropertyOp7
 70
     1
102
RTVSPropertyOp8
 70
     1
102
RTVSPropertyOp9
 70
     1
102
RTVSPropertyOp10
 70
     1
102
RTVSPropertyOp11
 70
     1
102
RTVSPropertyOp12
 70
     1
102
RTVSPropertyOp13
 70
     1
102
RTVSPropertyOp14
 70
     1
102
RTVSPropertyOp15
 70
     1
102
RTVSPropertyOp16
 70
     1
102
RTVSPropertyOp17
 70
     1
102
RTVSPropertyOp18
 70
     1
102
RTVSPropertyOp19
 70
     1
102
RTVSPropertyOp20
 70
     1
102
RTVSPropertyOp21
 70
     1
102
RTVSPropertyOp22
 70
     1
102
RTVSPropertyOp23
 70
     1
102
RTVSPropertyOp24
 70
     1
102
RTVSPropertyOp25
 70
     1
102
RTVSPropertyOp26
 70
     1
102
RTVSPropertyOp27
 70
     1
102
RTVSPropertyOp28
 70
     1
102
RTVSPropertyOp29
 70
     1
102
RTVSPropertyOp30
 70
     1
102
RTVSPropertyOp31
 70
     1
102
RTVSPropertyOp32
 70
     1
102
RTVSPropertyOp33
 70
     1
102
RTVSPropertyOp34
 70
     1
102
RTVSPropertyOp35
 70
     1
102
RTVSPropertyOp36
 70
     1
102
RTVSPropertyOp37
 70
     1
102
RTVSPropertyOp38
 70
     1
102
RTVSPropertyOp39
 70
     1
102
RTVSPropertyOp40
 70
     1
102
RTVSPropertyOp41
 70
     1
102
RTVSPropertyOp42
 70
     1
102
RTVSPropertyOp43
 70
     1
102
RTVSPropertyOp44
 70
     1
102
RTVSPropertyOp45
 70
     1
102
RTVSPropertyOp46
 70
     1
102
RTVSPropertyOp47
 70
     1
102
RTVSPropertyOp48
 70
     1
102
RTVSPropertyOp49
 70
     1
102
RTVSPropertyOp50
 70
     1
102
RTVSPropertyOp51
 70
     0
102
RTVSPropertyOp52
 70
     0
102
RTVSPropertyOp53
 70
     1
102
RTVSPropertyOp54
 70
     1
102
RTVSPropertyOp55
 70
     1
102
RTVSPropertyOp56
 70
     1
102
RTVSPropertyOp57
 70
     1
102
RTVSPost2010Prop28
280
     0
102
RTVSPost2010PropOp28
 70
     1
102
RTVSPost2010Prop29
280
     1
102
RTVSPost2010PropOp29
 70
     1
102
RTVSPost2010Prop30
280
     1
102
RTVSPost2010PropOp30
 70
     1
102
RTVSPost2010Prop31
280
     0
102
RTVSPost2010PropOp31
 70
     1
102
RTVSPost2010Prop32
280
     0
102
RTVSPost2010PropOp32
 70
     1
102
RTVSPost2010Prop33
280
     0
102
RTVSPost2010PropOp33
 70
     1
102
RTVSPost2010Prop34
280
     0
102
RTVSPost2010PropOp34
 70
     1
102
RTVSPost2010Prop35
280
     0
102
RTVSPost2010PropOp35
 70
     1
102
RTVSPost2010Prop36
280
     0
102
RTVSPost2010PropOp36
 70
     1
102
RTVSPost2010Prop37
 90
       50
102
RTVSPost2010PropOp37
 70
     1
102
RTVSPost2010Prop38
140
0.0
102
RTVSPost2010PropOp38
 70
     1
102
RTVSPost2010Prop39
140
1.0
102
RTVSPost2010PropOp39
 70
     1
102
RTVSPost2010Prop40
 90
        0
102
RTVSPost2010PropOp40
 70
     1
102
RTVSPost2010Prop41ColorIndex
 90
       18
102
RTVSPost2010Prop41ColorRGB
 90
        0
102
RTVSPost2010PropOp41
 70
     1
102
RTVSPost2010Prop42
 90
       50
102
RTVSPost2010PropOp42
 70
     1
102
RTVSPost2010Prop43
 90
        3
102
RTVSPost2010PropOp43
 70
     1
102
RTVSPost2010Prop44ColorIndex
 90
        5
102
RTVSPost2010Prop44ColorRGB
 90
      255
102
RTVSPost2010PropOp44
 70
     1
102
RTVSPost2010Prop45
280
     0
102
RTVSPost2010PropOp45
 70
     1
102
RTVSPost2010Prop46
 90
       50
102
RTVSPost2010PropOp46
 70
     1
102
RTVSPost2010Prop47
 90
       50
102
RTVSPost2010PropOp47
 70
     1
102
RTVSPost2010Prop48
 90
       50
102
RTVSPost2010PropOp48
 70
     1
102
RTVSPost2010Prop49
280
     0
102
RTVSPost2010PropOp49
 70
     1
102
RTVSPost2010Prop50
 90
       50
102
RTVSPost2010PropOp50
 70
     1
102
RTVSPost2010Prop51ColorIndex
 90
      256
102
RTVSPost2010Prop51ColorRGB
 90
-16777216
102
RTVSPost2010PropOp51
 70
     0
102
RTVSPost2010Prop52
140
1.0
102
RTVSPost2010PropOp52
 70
     0
102
RTVSPost2010Prop53
 90
        2
102
RTVSPost2010PropOp53
 70
     1
102
RTVSPost2010Prop54
  1
strokes_ogs.tif
102
RTVSPost2010PropOp54
 70
     1
102
RTVSPost2010Prop55
280
     0
102
RTVSPost2010PropOp55
 70
     1
102
RTVSPost2010Prop56
140
1.0
102
RTVSPost2010PropOp56
 70
     1
102
RTVSPost2010Prop57
140
1.0
102
RTVSPost2010PropOp57
 70
     1
  0
ENDSEC
  0
SECTION
  2
THUMBNAILIMAGE
 90
    16364
310
28000000B4000000550000000100080000000000C43B000000000000000000000001000000010000FFFFFF000000FF0000FFFF0000FF0000FFFF0000FF000000FF00FF000000000080808000C0C0C0000000FF007F7FFF000000A5005252A50000007F003F3F7F0000004C0026264C000000260013132600003FFF007F9FFF
310
000029A5005267A500001F7F003F4F7F0000134C00262F4C000009260013172600007FFF007FBFFF000052A500527CA500003F7F003F5F7F0000264C0026394C0000132600131C260000BFFF007FDFFF00007CA5005291A500005F7F003F6F7F0000394C0026424C00001C26001321260000FFFF007FFFFF0000A5A50052A5
310
A500007F7F003F7F7F00004C4C00264C4C00002626001326260000FFBF007FFFDF0000A57C0052A59100007F5F003F7F6F00004C3900264C420000261C001326210000FF7F007FFFBF0000A5520052A57C00007F3F003F7F5F00004C2600264C39000026130013261C0000FF3F007FFF9F0000A5290052A56700007F1F003F
310
7F4F00004C1300264C2F00002609001326170000FF00007FFF7F0000A5000052A55200007F00003F7F3F00004C0000264C260000260000132613003FFF00009FFF7F0029A5000067A552001F7F00004F7F3F00134C00002F4C260009260000172613007FFF0000BFFF7F0052A500007CA552003F7F00005F7F3F00264C0000
310
394C2600132600001C261300BFFF0000DFFF7F007CA5000091A552005F7F00006F7F3F00394C0000424C26001C26000021261300FFFF0000FFFF7F00A5A50000A5A552007F7F00007F7F3F004C4C00004C4C26002626000026261300FFBF0000FFDF7F00A57C0000A59152007F5F00007F6F3F004C3900004C422600261C00
310
0026211300FF7F0000FFBF7F00A5520000A57C52007F3F00007F5F3F004C2600004C39260026130000261C1300FF3F0000FF9F7F00A5290000A56752007F1F00007F4F3F004C1300004C2F26002609000026171300FF000000FF7F7F00A5000000A55252007F0000007F3F3F004C0000004C2626002600000026131300FF00
310
3F00FF7F9F00A5002900A55267007F001F007F3F4F004C0013004C262F002600090026131700FF007F00FF7FBF00A5005200A5527C007F003F007F3F5F004C0026004C2639002600130026131C00FF00BF00FF7FDF00A5007C00A55291007F005F007F3F6F004C0039004C26420026001C0026132100FF00FF00FF7FFF00A5
310
00A500A552A5007F007F007F3F7F004C004C004C264C002600260026132600BF00FF00DF7FFF007C00A5009152A5005F007F006F3F7F0039004C0042264C001C002600211326007F00FF00BF7FFF005200A5007C52A5003F007F005F3F7F0026004C0039264C00130026001C1326003F00FF009F7FFF002900A5006752A500
310
1F007F004F3F7F0013004C002F264C000900260017132600000000002D2D2D005B5B5B0089898900B7B7B700B3B3B30000000000000000000000000000000000000000000000000000000000000000000000000000000000000000000000000000000000000000000000000000000000000000000000000000000000000000
310
00000000000000000000000000000000000000000000000000000000000000000000000000000000000000000000000000000000000000000000000000000000000000000000000000000000000000000000000000000000000000000000000000000000000000000000000000000000000000000000000000000000000000
310
00000000000000000000000000000000000000000000000000000000000000000000000000000000000000000000000000000000000000000000000000000000000000000000000000000000000000000000000000000000000000000000000000000000000000000000000000000000000000000000000000000000000000
310
00000000000000000000000000000000000000000000000000000000000000000000000000000000000000000000000000000000000000000000000000030303030303030303030303030303030303030303030303030303030303030303030303030303030303030303030303030303030303030303030303030303030303
310
03030303030303030303030303030303030303030303030303030303030303030303030303030303030303030303030000000000000000000000000000000000000000000000000000000000000000000000000000000000000000000000000000000000000000000000000000000000000003030303000000000000000000
310
00000000000000000000000000000000000000000000000000000000000000000000000000000000000000000000000000000000000000000000000000000000000000000000000000000000000000000000000000000000000000000000000000000003000000000000000000000000000000000000000000000000000000
310
00000000000000000000000000000000000000000000000000000000000000000000000000000000030307070707070707070707070707070707070707070707070707070707070707070707070707070707070707070707070707070707070707070707070707070707070707070707070707070707070707070707070707
310
07070707070707070707070707070707070707070707070700030000000000000000000000000000000000000000000000000000000000000000000000000000000000000000000000000000000000000000000000000000000000000003030700000000000000000000000000000000000000000000000000000000000000
310
00000000000000000000000000000000000000000000000000000000000000000000000007000000000000000000000000070707070707070707070707070707070707070707000000000000070003000000000000000000000000000000000000000000000000000000000000000000000000000000000000000000000000
310
00000000000000000000000000000000000000030007000000000000000000000000000000000000000000000000000000000000000000000000000000000000000000000000000000000000000000000000000000000000000707070707070707070707070707070707070707070707070707070707070707070707070707
310
07070700030000000000000000000000000000000000000000000000000000000000000000000000000000000000000000000000000000000000000000000000000000000000000003000700000000000000000000000000000000000000000000000000000000000000000000000000000000000000000000000000000000
310
00000000000000000000000000000007000000000000000000000000070000000000000000000000000000000000000707000000000000070003000000000000000000000000000000000000000000000000000000000000000000000000000000000000000000000000000000000000000000000000000000000000000300
310
07070707070707070707070707070707070707070707070707070707070707070707070707070707070707070707070707070707070707070707070707070707070707070707070707070707070707070707070707070707070707070707070707070707070707070707070707000300000000000000000000000000000000
310
00000000000000000000000000000000000000000000000000000000000000000000000000000000000000000000000000000003000100000000070000000000000000000000000000000000000000000700000000070000000000000000000000000000000000000000000700000000070000000000000000000000000000
310
00000000000000070000000007000000000000000000000000000000000000000000070003000000000000000000000000000000000000000000000000000000000000000000000000000000000000000000000000000000000000000000000000000000000000000300010000000007070707070707070707070700000000
310
00000000000007000000000700000000000000000000000000000000000000000007000000000700000000000000000000000000000000000000000007000000000700000000000000000000000000000000000000000007000300000000000000000000000000000000000000000000000000000000000000000000000000
310
00000000000000000000000000000000000000000000000000000000000003000107070700070707070707070707070707070707070707000000000700000000070000000000000000000000000000000000000000000700000000070000000000000000000000000000000000000000000700000000070000000000000000
310
00000000000000000000000000070003000000000000000000000000000000000000000000000000000000000000000000000000000000000000000000000000000000000000000000000000000000000000000300010707070707070707070707070707070707070707070707070707070000000007000000000000000000
310
00000000000000000000000007000000000700000000000000000000000000000000000000000007000000000700000000000000000000000000000000000000000007000300000000000000000000000000000000000000000000000000000000000000000000000000000000000000000000000000000000000000000000
310
00000000000000000003000100000000070707070707070707070707070707070707070707070700000000070000000000000000000000000000000000000000000700000000070000000000000000000000000000000000000000000700000000070000000000000000000000000000000000000000000700030000000000
310
00000000000000000000000000000000000000000000000000000000000000000000000000000000000000000000000000000000000000000000000000000300010000000007000707070707070707070707070707070707070707070000000007000000000000000000000000000000000000000000070000000007000000
310
00000000000000000000000000000000000007000000000700000000000000000000000000000000000000000007000300000000000000000000000000000000000000000000000000000000000000000000000000000000000000000000000000000000000000000000000000000000000000030001000000000707070707
310
07070707070707070707070707070707070700000000070000000000000000000000000000000000000000000700000000070000000000000000000000000000000000000000000700000000070000000000000000000000000000000000000000000700030000000000000000000000000000000000000000000000000000
310
00000000000000000000000000000000000000000000000000000000000000000000000000000000000300010000000007070707070707070707070707070707070707070707070000000007000000000000000000000000000000000000000000070000000007000000000000000000000000000000000000000000070000
310
00000700000000000000000000000000000000000000000007000300000000000000000000000000000000000000000000000000000000000000000000000000000000000000000000000000000000000000000000000000000000000000030001000000000707070707070707070707070707070707070707070707000000
310
00070000000000000000000000000000000000000000000700000000070000000000000000000000000000000000000000000700000000070000000000000000000000000000000000000000000700030000000000000000000000000000000000000000000000000000000000000000000000000000000000000000000000
310
00000000000000000000000000000000000000000300010000000007070707070707070707070707070707070707070707070000000007000000000000000000000000000000000000000000070000000007000000000000000000000000000000000000000000070000000007000000000000000000000000000000000000
310
00000007000300000000000000000000000000000000000000000000000000000000000000000000000000000000000000000000000000000000000000000000000000000000000000030001000000000707070707070707070707070707070707070707070707000000000700000000000000000000000000000000000000
310
00000700000000070000000000000000000000000000000000000000000700000000070000000000000000000000000000000000000000000700030000000000000000000000000000000000000000000000000000000000000000000000000000000000000000000000000000000000000000000000000000000000000003
310
00010000000007070707070707070707070707070707070000070700070000000007000000000000000000000000000000000000000000070000000007000000000000000000000000000000000000000000070000000007000000000000000000000000000000000000000000070003000000000000000000000000000000
310
00000000000000000000000000000000000000000000000000000000000000000000000000000000000000000000000000000000030001000000000707070707070707070707070707070707070707070707000000000700000000000000000000000000000000000000000007000000000700000000000000000000000000
310
00000000000000000700000000070000000000000000000000000000000000000000000700030000000000000000000000000000000000000000000000000000000000000000000000000000000000000000000000000000000000000000000000000000000000000003000100000000070707070707070707070707070707
310
07070707070707070000000007000000000000000000000000000000000000000000070000000007000000000000000000000000000000000000000000070000000007000000000000000000000000000000000000000000070003000000000000000000000000000000000000000000000000000000000000000000000000
310
00000000000000000000000000000000000000000000000000000000000000030001000000000707070707070707070707070707070707070707000007000000000700000000000000000000000000000000000000000007000000000700000000000000000000000000000000000000000007000000000700000000000000
310
00000000000000000000000000000700030000000000000000000000000000000000000000000000000000000000000000000000000000000000000000000000000000000000000000000000000000000000000003000107070700070707070707070707000000000000000000000000000700000000070000000000000000
310
00000000000000000000000000070000000007000000000000000000000000000000000000000000070000000007000000000000000000000000000000000000000000070003000000000000000000000000000000000000000000000000000000000000000000000000000000000000000000000000000000000000000000
310
00000000000000000000030001070707070707070707070707070707070707070707070707070707000000000700000000000000000000000000000000000000000007000000000700000000000000000000000000000000000000000007000000000700000000000000000000000000000000000000000007000300000000
310
00000000000000000000000000000000000000000000000000000000000000000000000000000000000000000000000000000000000000000000000000000003000100000000070000000000000000000000000000000000000000000700000000070000000000000000000000000000000000000000000700000000070000
310
00000000000000000000000000000000000000070000000007000000000000000000000000000000000000000000070003000000000000000000000000000000000000000000000000000000000000000000000000000000000000000000000000000000000000000000000000000000000000000300010000000007070707
310
07070700000000000000000000000000000007000000000700000000000000000000000000000000000000000007000000000700000000000000000000000000000000000000000007000000000700000000000000000000000000000000000000000007000300000000000000000000000000000000000000000000000000
310
00000000000000000000000000000000000000000000000000000000000000000000000000000000000003000100000000070707070707070707070707070707070707070707070700000000070000000000000000000000000000000000000000000700000000070000000000000000000000000000000000000000000700
310
00000007000000000000000000000000000000000000000000070003000000000000000000000000000000000000000000000000000000000000000000000000000000000000000000000000000000000000000000000000000000000000000300010000000007070707070707070707070707000000000000000000070000
310
00000700000000000000000000000000000000000000000007000000000700000000000000000000000000000000000000000007000000000700000000000000000000000000000000000000000007000300000000000000000000000000000000000000000000000000000000000000000000000000000000000000000000
310
00000000000000000000000000000000000000000003000100000000070707070707070707070707070000000000000000000700000000070000000000000000000000000000000000000000000700000000070000000000000000000000000000000000000000000700000000070000000000000000000000000000000000
310
00000000070003000000000000000000000000000000000000000000000000000000000000000000000000000000000000000000000000000000000000000000000000000000000000000300010000000007070707070707070707070707000000000000000000070000000007000000000000000000000000000000000000
310
00000007000000000700000000000000000000000000000000000000000007000000000700000000000000000000000000000000000000000007000300000000000000000000000000000000000000000000000000000000000000000000000000000000000000000000000000000000000000000000000000000000000000
310
03000100000000070707070707070707070707000000000000000000000700000000070000000000000000000000000000000000000000000700000000070000000000000000000000000000000000000000000700000000070000000000000000000000000000000000000000000700030000000000000000000000000000
310
00000000000000000000000000000000000000000000000000000000000000000000000000000000000000000000000000000000000300010000000007070707070707070707070707070707070707070707070000000007000000000000000000000000000000000000000000070000000007000000000000000000000000
310
00000000000000000007000000000700000000000000000000000000000000000000000007000300000000000000000000000000000000000000000000000000000000000000000000000000000000000000000000000000000000000000000000000000000000000000030001000000000707070707070707070707070707
310
07000000000000000700000000070000000000000000000000000000000000000000000700000000070000000000000000000000000000000000000000000700000000070000000000000000000000000000000000000000000700030000000000000000000000000000000000000000000000000000000000000000000000
310
00000000000000000000000000000000000000000000000000000000000000000300010707000007070707070707070707070707070707070707070707070000000007000000000000000000000000000000000000000000070000000007000707070707070707070707000000000000000000070000000007000000000000
310
00000000000000000000000000000007000300000000000000000000000000000000000000000000000000000000000000000000000000000000000000000000000000000000000000000000000000000000000000030001070707070707070707070707070707070707070707070707070707000000000700000000000000
310
00000000000000000000000000000700000000070007070707070707070707070707070707070707070700000000070000000000000000000000000000000000000000000700030000000000000000000000000000000000000000000000000000000000000000000000000000000000000000000000000000000000000000
310
00000000000000000000000300010000000007070707070707070707070707070707070707070700070000000007000000000000000000000000000000000000000000070000000007070707070707070707070707070700000000000000070000000007000000000000000000000000000000000000000000070003000000
310
00000000000000000000000000000000000000000000000000000000000000000000000000000000000000000000000000000000000000000000000000000000030001000000000707070707070707070000000000000000000000000007000000000700000000000000000000000000000000000000000007000000000707
310
07070707070707070707070707070707070707070700000000070000000000000000000000000000000000000000000700030000000000000000000000000000000000000000000000000000000000000000000000000000000000000000000000000000000000000000000000000000000000000003000100000000070707
310
07070707070707070707070707070000000000070000000007000000000000000000000000000000000000000000070000000007070707070707070707070707070707070707070707070000000007000000000000000000000000000000000000000000070003000000000000000000000000000000000000000000000000
310
00000000000000000000000000000000000000000000000000000000000000000000000000000000000000030001000000000700000000000000000000000000000000000000000007000000000700000000000000000000000000000000000000000007000000000707070707070707070707070707070707070707070707
310
00000000070000000000000000000000000000000000000000000700030000000000000000000000000000000000000000000000000000000000000000000000000000000000000000000000000000000000000000000000000000000000000003000100000000070707070707070707070700000000000000000000000700
310
00000007000000000000000000000000000000000000000000070000000007070707070707070707070707070707070707070707070000000007000000000000000000000000000000000000000000070003000000000000000000000000000000000000000000000000000000000000000000000000000000000000000000
310
00000000000000000000000000000000000000000000030001000000000700070707070707070707070707070707070707000007000000000700000000000000000000000000000000000000000007000000000707070707070707070707070707070707070707070707000000000700000000000000000000000000000000
310
00000000000700030000000000000000000000000000000000000000000000000000000000000000000000000000000000000000000000000000000000000000000000000000000000000003000100000000070007070707070707070707070707070707070000000700000000070000000000000000000000000000000000
310
00000000070000000007070707070707070707070707070707070707070707070000000007000000000000000000000000000000000000000000070003000000000000000000000000000000000000000000000000000000000000000000000000000000000000000000000000000000000000000000000000000000000000
310
00030001000000000700000007070707070707070707070000000000000007000000000700000000000000000000000000000000000000000007000000000707070707070707070707070707070707070707070707000000000700000000000000000000000000000000000000000007000300000000000000000000000000
310
00000000000000000000000000000000000000000000000000000000000000000000000000000000000000000000000000000000000003000100000000070000000707070707070707070707070707070707070700000000070000000000000000000000000000000000000000000700000000070707070707070707070707
310
07070700000000000000070000000007000707070707070707070707070707070707070700070003000000000000000000000000000000000000000000000000000000000000000000000000000000000000000000000000000000000000000000000000000000000000000300010000000007000007070707070707070707
310
07070707070707070707000000000700000000000000000000000000000000000000000007000000000707070707070707070707070707070707070707070707000000000707070707070707070707070707070707070707070007000300000000000000000000000000000000000000000000000000000000000000000000
310
00000000000000000000000000000000000000000000000000000000000000000003000100000000070007070707070707070707070707070707070700000700000000070000000000000000000000000000000000000000000700000000070707070707070707000007070707070707070700070700000000070000000000
310
00000000000000000000000000000000070003000000000000000000000000000000000000000000000000000000000000000000000000000000000000000000000000000000000000000000000000000000000000000300010000000007000707070707070707000000000000000000000000070000000007000000000000
310
00000000000000000000000000000007000000000707070707070707070707070707070707070707070707000000000700070707070707070707070707070707000000000007000300000000000000000000000000000000000000000000000000000000000000000000000000000000000000000000000000000000000000
310
00000000000000000000000003000100000000070007070707070000000000000000000000070707070700000000070000000000000000000000000000000000000000000700000000070707070707070707070707070707070707070707070700000000070007070707070707070707070707070707070707070700030000
310
00000000000000000000000000000000000000000000000000000000000000000000000000000000000000000000000000000000000000000000000000000000000300010000000007070707070707070707070707070707070707070000070000000007000000000000000000000000000000000000000000070000000007
310
00070707070707070700070000000707000000000707000000000707070707070707070707070707070707070707070707000300000000000000000000000000000000000000000000000000000000000000000000000000000000000000000000000000000000000000000000000000000000000000030001000000000707
310
07070707070707070707070707070707070707070700000000070000000000000000000000000000000000000000000700000000070707070707070707070707070707070707070707070700000000070000000000000000000000000000000000000000000700030000000000000000000000000000000000000000000000
310
00000000000000000000000000000000000000000000000000000000000000000000000000000000000000000300010000000007070707070707070707070707070707070707070707070000000007000000000000000000000000000000000000000000070000000007070707070707070707070707070700000000000000
310
07000000000700000000000000000000000000000000000000000007000300000000000000000000000000000000000000000000000000000000000000000000000000000000000000000000000000000000000000000000000000000000000000030001000000000707070707070707070707070000000000000000000007
310
00000000070000000000000000000000000000000000000000000700000000070707070707070707070707070707070707070707070700000000070007070707070700000000000000000000000000000700030000000000000000000000000000000000000000000000000000000000000000000000000000000000000000
310
00000000000000000000000000000000000000000000000300010707070007070707070707070707070707070707070707070707070000000007000000000000000000000000000000000000000000070000000007070707070707070707070707070707070707070707070000000007000707070707070707070707070707
310
07070707070707000300000000000000000000000000000000000000000000000000000000000000000000000000000000000000000000000000000000000000000000000000000000000000030007070707070707070707070707070707070707070707070707070707000000000700000000000000000000000000000000
310
00000000000700000000070707070707070707070707070707070707070707070700000000070007070707070707070707070707070707070707070700030000000000000000000000000000000000000000000000000000000000000000000000000000000000000000000000000000000000000000000000000000000000
310
00000300010000000007070707070707070700000707070707070707070707070000000007000000000000000000000000000000000000000000070000000007070707070707070707070707070707070707070707070000000007000707070707070707070707070707070707070707070003000000000000000000000000
310
00000000000000000000000000000000000000000000000000000000000000000000000000000000000000000000000000000000000000030001000000000700070707070707070000070707070707070700000007000000000700000000000000000000000000000000000000000007000000000707070707070707070707
310
07070707070707070707070700000000070707070707070707070707070707070707070707070700030000000000000000000000000000000000000000000000000000000000000000000000000000000000000000000000000000000000000000000000000000000000000003000100000000070707070707070707070707
310
07070707000000000000070000000007000000000000000000000000000000000000000000070000000007070707070707070707070707070700000000000000070000000007000000000000000000000000000000000000000000070003000000000000000000000000000000000000000000000000000000000000000000
310
00000000000000000000000000000000000000000000000000000000000000000000030001000000000707070707070707070700070707070707070700000007000000000700000000000000000000000000000000000000000007000000000707070707070000000000000000000000000000000007000000000700070707
310
07070707070707070707070000000000000700030000000000000000000000000000000000000000000000000000000000000000000000000000000000000000000000000000000000000000000000000000000000000003000100000000070707070707070707070707000707070700000000000700000000070707070707
310
07070707070707070707070707070707070000000007070707070707070707070700000000000000000000070000000007000707070707070707070707070707070707070707070003000000000000000000000000000000000000000000000000000000000000000000000000000000000000000000000000000000000000
310
00000000000000000000000000030001000000000707070707000000000000000000000000000000000007000000000707070707070707070707070707070707070707070707000000000707070707070707000000000000000000000000000007000000000700070707070707070707070707070707070707070707000300
310
00000000000000000000000000000000000000000000000000000000000000000000000000000000000000000000000000000000000000000000000000000000000003000100000000070707070707070707070700070707070707070707070700000000070707070707070707070707070707070707070707070700000000
310
07070707070707070707070700000000000000000000070000000007000707070707070707070707070707070707070707070003000000000000000000000000000000000000000000000000000000000000000000000000000000000000000000000000000000000000000000000000000000000000000300010000000007
310
07070707070707070707000707070707070707070707000000000707070707070707070707070707070707070707070707000000000707070707070707070707070707070707070707070707000000000707070707070707070707070707070707070707070707000300000000000000000000000000000000000000000000
310
00000000000000000000000000000000000000000000000000000000000000000000000000000000000000000003000100000000070707070707070707070700070707070707070707070707070707070707070707070707070707070707070707070707070700000000070707070707070707070707070707070707070707
310
07070000000007000000000000000000000000000000000000000000070003000000000000000000000000000000000000000000000000000000000000000000000000000000000000000000000000000000000000000000000000000000000000000300010000000007070707070707070707070007070707070707070707
310
07070707070707070707070707070707070707070707070707070707000000000707070707070707070707070707070707070707070707000000000700070707070707070700000000000000000000000007000300000000000000000000000000000000000000000000000000000000000000000000000000000000000000
310
00000000000000000000000000000000000000000000000003000100000000070707070707070707070700070707070707070707070700000000070707070707070707070707070707070700000000000700000000070707070707070707070707070707070707070707070700000000070707070707070707070707070707
310
07070707070707070003000000000000000000000000000000000000000000000000000000000000000000000000000000000000000000000000000000000000000000000000000000000000000300010000000007070707070707070707070707070707070707070707070000000007000707070707070000000000000000
310
00000000000007000000000707070707070707070707070707070707070707070707000000000700000000000000000000000000000000000000000007000300000000000000000000000000000000000000000000000000000000000000000000000000000000000000000000000000000000000000000000000000000000
310
00000003000100000000070707070707070707070707070707070707070707070700000000070707070707070707070707070707070707070707070700000000070707070707000000000000000000000000000000000700000000070000000000000000000000000000000000000000000700030000000000000000000000
310
00000000000000000000000000000000000000000000000000000000000000000000000000000000000000000000000000000000000000000300010000000007070707070707070707070707070707070707070707070000000007070707070707070707070707070707070707070707070000000007070707070707070707
310
07070707070707070707000007000000000700070707070707070707070700000000000000000007000300000000000000000000000000000000000000000000000000000000000000000000000000000000000000000000000000000000000000000000000000000000000000030001000000000707070707070707070707
310
07070707070707070707070700000000070707070707070707070707070707070707070707070700000000070707070707070707070707000000000000000000000700000000070007070707070707070707070707070707070707070700030000000000000000000000000000000000000000000000000000000000000000
310
00000000000000000000000000000000000000000000000000000000000000000000000300010000000007070707070707070707070707070707070707070707070000000007070707070707070707070707070707070707070707070000000007070707070700000000000000000000000000000000070000000007000707
310
07070707070707070707070707070707070707000300000000000000000000000000000000000000000000000000000000000000000000000000000000000000000000000000000000000000000000000000000000000000030001000000000700000000000000000000000000000000000000000007000000000707070707
310
07070707070707070707070707070707070700000000070707070707070000000000000000000000000000000700000000070007070707070707070707070707070707070707000700030000000000000000000000000000000000000000000000000000000000000000000000000000000000000000000000000000000000
310
00000000000000000000000000000300010000000007070707070707070707070707070707070707070707070000000007070707070707070707070707070707070707070707070000000007070707070707070000000000000000000000000000070000000007000707070707070707070707070707070707070707070003
310
00000000000000000000000000000000000000000000000000000000000000000000000000000000000000000000000000000000000000000000000000000000000000030001000000000707070707070707070700000000000000000000000007070707000700000000000000000000000000000000000000000007000000
310
00070707070707070707070707070707070707000000000700000000070707070707070707070707070707070707070707070700030000000000000000000000000000000000000000000000000000000000000000000000000000000000000000000000000000000000000000000000000000000000000003000107070000
310
07070707070707070707070707070707070707070707070707070707070707070707070707070707070707070707070000070000000007070707070707070700000000000000000000000000070000000007000000000000000000000000000000000000000000070003000000000000000000000000000000000000000000
310
00000000000000000000000000000000000000000000000000000000000000000000000000000000000000000000030001070707070707070707070707070707070707070707070707070707070707070707070707070707070707070707070707070707070707070707070707070707070707070707070707070707070707
310
07070700000000070007070707070707070707070707070700000000000700030000000000000000000000000000000000000000000000000000000000000000000000000000000000000000000000000000000000000000000000000000000000000003000101010101010101010101010101010101010101010101010101
310
01010101010101010101010101010101010101010101010101010101010101010101010101010101010101010101010101010101010101070707070707070707070707070707070707070707070707070707070003000000000000000000000000000000000000000000000000000000000000000000000000000000000000
310
00000000000000000000000000000000000000000000000000030000000000000000000000000000000000000000000000000000000000000000000000000000000000000000000000000000000000000000000000000000000000000000000000000000000000000000000000000000000000000000000000000000000000
310
07070707070707070703030000000000000000000000000000000000000000000000000000000000000000000000000000000000000000000000000000000000000000000000000000000000000003000000000000000000000000000000000000000000000000000000000000000000000000000000000000000000000000
310
00000000000000000000000000000000000000000000000000000000000000000000000000000000000000000000000000000000000000000000000003030303000000000000000000000000000000000000000000000000000000000000000000000000000000000000000000000000000000000000000000000000000000
310
00000000030000000000000000000000000000000000000000000000000000000000000000000000000000000000000000000000000000000000000000000000000000000000000000000000000000000000000000000000000000000000000000000000000000000000000000000000000303030300000000000000000000
310
00000000000000000000000000000000000000000000000000000000000000000000000000000000000000000000000000000000000000000003030303030303030303030303030303030303030303030303030303030303030303030303030303030303030303030303030303030303030303030303030303030303030303
310
03030303030303030303030303030303030303030303030303030303030303030303030303030303030303000000000000000000000000000000000000000000000000000000000000000000000000000000000000000000000000000000000000000000000000000000000000000000000000000000000000000000000000
310
00000000000000000000000000000000000000000000000000000000000000000000000000000000000000000000000000000000000000000000000000000000000000000000000000000000000000000000000000000000000000000000000000000000000000000000000000000000000000000000000000000000000000
310
00000000000000000000000000000000000000000000000000000000000000000000000000000000000000000000000000000000000000000000000000000000000000000000000000000000000000000000000000000000000000000000000000000000000000000000000000000000000000000000000000000000000000
310
00000000000000000000000000000000000000000000000000000000000000000000000000000000000000000000000000000000000000000000000000000000000000000000000000000000000000000000000000000000000000000000000000000000000000000000000000000000000000000000000000000000000000
310
000000000000000000000000000000000000000000000000000000000000000000000000000000000000000000000000000000000000000000000000000000000000000000000000000000000000000000000000000000000000000000000000000000000000000000000000
  0
ENDSEC
  0
EOF
