  0
SECTION
  2
HEADER
  9
$ACADVER
  1
AC1014
  9
$ACADMAINTVER
 70
     9
  9
$DWGCODEPAGE
  3
ANSI_932
  9
$INSBASE
 10
0.0
 20
0.0
 30
0.0
  9
$EXTMIN
 10
-92500.0
 20
-96200.0
 30
0.0
  9
$EXTMAX
 10
106100.0
 20
108456.5400843881
 30
0.0
  9
$LIMMIN
 10
0.0
 20
0.0
  9
$LIMMAX
 10
0.0
 20
0.0
  9
$ORTHOMODE
 70
     0
  9
$REGENMODE
 70
     1
  9
$FILLMODE
 70
     1
  9
$QTEXTMODE
 70
     0
  9
$MIRRTEXT
 70
     1
  9
$DRAGMODE
 70
     2
  9
$LTSCALE
 40
5080.0
  9
$OSMODE
 70
    37
  9
$ATTMODE
 70
     1
  9
$TEXTSIZE
 40
0.0
  9
$TRACEWID
 40
1.0
  9
$TEXTSTYLE
  7
STANDARD
  9
$CLAYER
  8
一般
  9
$CELTYPE
  6
CONTINUOUS
  9
$CECOLOR
 62
   256
  9
$CELTSCALE
 40
1.0
  9
$DELOBJ
 70
     1
  9
$DISPSILH
 70
     0
  9
$DIMSCALE
 40
1.0
  9
$DIMASZ
 40
0.18
  9
$DIMEXO
 40
0.0625
  9
$DIMDLI
 40
0.38
  9
$DIMRND
 40
0.0
  9
$DIMDLE
 40
0.0
  9
$DIMEXE
 40
0.18
  9
$DIMTP
 40
0.0
  9
$DIMTM
 40
0.0
  9
$DIMTXT
 40
0.18
  9
$DIMCEN
 40
0.09
  9
$DIMTSZ
 40
0.0
  9
$DIMTOL
 70
     0
  9
$DIMLIM
 70
     0
  9
$DIMTIH
 70
     1
  9
$DIMTOH
 70
     1
  9
$DIMSE1
 70
     0
  9
$DIMSE2
 70
     0
  9
$DIMTAD
 70
     0
  9
$DIMZIN
 70
     0
  9
$DIMBLK
  1

  9
$DIMASO
 70
     1
  9
$DIMSHO
 70
     1
  9
$DIMPOST
  1

  9
$DIMAPOST
  1

  9
$DIMALT
 70
     0
  9
$DIMALTD
 70
     2
  9
$DIMALTF
 40
25.4
  9
$DIMLFAC
 40
1.0
  9
$DIMTOFL
 70
     0
  9
$DIMTVP
 40
0.0
  9
$DIMTIX
 70
     0
  9
$DIMSOXD
 70
     0
  9
$DIMSAH
 70
     0
  9
$DIMBLK1
  1

  9
$DIMBLK2
  1

  9
$DIMSTYLE
  2
STANDARD
  9
$DIMCLRD
 70
     0
  9
$DIMCLRE
 70
     0
  9
$DIMCLRT
 70
     0
  9
$DIMTFAC
 40
1.0
  9
$DIMGAP
 40
0.09
  9
$DIMJUST
 70
     0
  9
$DIMSD1
 70
     0
  9
$DIMSD2
 70
     0
  9
$DIMTOLJ
 70
     1
  9
$DIMTZIN
 70
     0
  9
$DIMALTZ
 70
     0
  9
$DIMALTTZ
 70
     0
  9
$DIMFIT
 70
     3
  9
$DIMUPT
 70
     0
  9
$DIMUNIT
 70
     2
  9
$DIMDEC
 70
     4
  9
$DIMTDEC
 70
     4
  9
$DIMALTU
 70
     2
  9
$DIMALTTD
 70
     2
  9
$DIMTXSTY
  7
STANDARD
  9
$DIMAUNIT
 70
     0
  9
$LUNITS
 70
     2
  9
$LUPREC
 70
     4
  9
$SKETCHINC
 40
0.1
  9
$FILLETRAD
 40
0.0
  9
$AUNITS
 70
     0
  9
$AUPREC
 70
     0
  9
$MENU
  1
acad
  9
$ELEVATION
 40
0.0
  9
$PELEVATION
 40
0.0
  9
$THICKNESS
 40
0.0
  9
$LIMCHECK
 70
     0
  9
$BLIPMODE
 70
     0
  9
$CHAMFERA
 40
0.0
  9
$CHAMFERB
 40
0.0
  9
$CHAMFERC
 40
0.0
  9
$CHAMFERD
 40
0.0
  9
$SKPOLY
 70
     0
  9
$TDCREATE
 40
2456167.659203009
  9
$TDUPDATE
 40
2456167.659953877
  9
$TDINDWG
 40
0.0007628009
  9
$TDUSRTIMER
 40
0.0007618981
  9
$USRTIMER
 70
     1
  9
$ANGBASE
 50
0.0
  9
$ANGDIR
 70
     0
  9
$PDMODE
 70
     1
  9
$PDSIZE
 40
-2.0
  9
$PLINEWID
 40
0.0
  9
$COORDS
 70
     1
  9
$SPLFRAME
 70
     0
  9
$SPLINETYPE
 70
     6
  9
$SPLINESEGS
 70
     8
  9
$ATTDIA
 70
     0
  9
$ATTREQ
 70
     1
  9
$HANDLING
 70
 10241
  9
$HANDSEED
  5
341
  9
$SURFTAB1
 70
     6
  9
$SURFTAB2
 70
     6
  9
$SURFTYPE
 70
     6
  9
$SURFU
 70
     6
  9
$SURFV
 70
     6
  9
$UCSNAME
  2

  9
$UCSORG
 10
0.0
 20
0.0
 30
0.0
  9
$UCSXDIR
 10
1.0
 20
0.0
 30
0.0
  9
$UCSYDIR
 10
0.0
 20
1.0
 30
0.0
  9
$PUCSNAME
  2

  9
$PUCSORG
 10
0.0
 20
0.0
 30
0.0
  9
$PUCSXDIR
 10
1.0
 20
0.0
 30
0.0
  9
$PUCSYDIR
 10
0.0
 20
1.0
 30
0.0
  9
$USERI1
 70
     0
  9
$USERI2
 70
     0
  9
$USERI3
 70
     0
  9
$USERI4
 70
     0
  9
$USERI5
 70
     0
  9
$USERR1
 40
0.0
  9
$USERR2
 40
0.0
  9
$USERR3
 40
0.0
  9
$USERR4
 40
0.0
  9
$USERR5
 40
0.0
  9
$WORLDVIEW
 70
     1
  9
$SHADEDGE
 70
     3
  9
$SHADEDIF
 70
    70
  9
$TILEMODE
 70
     1
  9
$MAXACTVP
 70
    64
  9
$PINSBASE
 10
0.0
 20
0.0
 30
0.0
  9
$PLIMCHECK
 70
     0
  9
$PEXTMIN
 10
1.000000000000000E+20
 20
1.000000000000000E+20
 30
1.000000000000000E+20
  9
$PEXTMAX
 10
-1.000000000000000E+20
 20
-1.000000000000000E+20
 30
-1.000000000000000E+20
  9
$PLIMMIN
 10
0.0
 20
0.0
  9
$PLIMMAX
 10
12.0
 20
9.0
  9
$UNITMODE
 70
     0
  9
$VISRETAIN
 70
     0
  9
$PLINEGEN
 70
     1
  9
$PSLTSCALE
 70
     0
  9
$TREEDEPTH
 70
  3020
  9
$PICKSTYLE
 70
     1
  9
$CMLSTYLE
  2
STANDARD
  9
$CMLJUST
 70
     0
  9
$CMLSCALE
 40
1.0
  9
$PROXYGRAPHICS
 70
     0
  9
$MEASUREMENT
 70
     1
  0
ENDSEC
  0
SECTION
  2
CLASSES
  0
CLASS
  1
LWPOLYLINE
  2
AcDbPolyline
  3
AutoCAD 2000
 90
        0
280
     0
281
     1
  0
CLASS
  1
IMAGE
  2
AcDbRasterImage
  3
ISM
 90
      127
280
     0
281
     1
  0
CLASS
  1
OLE2FRAME
  2
AcDbOle2Frame
  3
AutoCAD 2000
 90
        0
280
     0
281
     1
  0
CLASS
  1
HATCH
  2
AcDbHatch
  3
AutoCAD 2000
 90
        0
280
     0
281
     1
  0
CLASS
  1
DICTIONARYVAR
  2
AcDbDictionaryVar
  3
AutoCAD 2000
 90
        0
280
     0
281
     0
  0
CLASS
  1
RASTERVARIABLES
  2
AcDbRasterVariables
  3
ISM
 90
        0
280
     0
281
     0
  0
CLASS
  1
IMAGEDEF
  2
AcDbRasterImageDef
  3
ISM
 90
        0
280
     0
281
     0
  0
CLASS
  1
IMAGEDEF_REACTOR
  2
AcDbRasterImageDefReactor
  3
ISM
 90
        1
280
     0
281
     0
  0
CLASS
  1
IDBUFFER
  2
AcDbIdBuffer
  3
AutoCAD 2000
 90
        0
280
     0
281
     0
  0
CLASS
  1
SPATIAL_FILTER
  2
AcDbSpatialFilter
  3
AutoCAD 2000
 90
        0
280
     0
281
     0
  0
CLASS
  1
XRECORD
  2
AcDbXrecord
  3
AutoCAD 2000
 90
        0
280
     0
281
     0
  0
CLASS
  1
SORTENTSTABLE
  2
AcDbSortentsTable
  3
AutoCAD 2000
 90
        0
280
     0
281
     0
  0
CLASS
  1
LAYER_INDEX
  2
AcDbLayerIndex
  3
AutoCAD 2000
 90
        0
280
     0
281
     0
  0
CLASS
  1
SPATIAL_INDEX
  2
AcDbSpatialIndex
  3
AutoCAD 2000
 90
        0
280
     0
281
     0
  0
CLASS
  1
OBJECT_PTR
  2
CAseDLPNTableRecord
  3
"ASE-LPNTableRecord"
 90
        1
280
     0
281
     0
  0
CLASS
  1
LAYOUT
  2
AcDbLayout
  3
AutoCAD 2000
 90
        0
280
     0
281
     0
  0
CLASS
  1
PLOTSETTINGS
  2
AcDbPlotSettings
  3
AutoCAD 2000
 90
        0
280
     0
281
     0
  0
CLASS
  1
ACDBDICTIONARYWDFLT
  2
AcDbDictionaryWithDefault
  3
AutoCAD 2000
 90
        0
280
     0
281
     0
  0
CLASS
  1
ACDBPLACEHOLDER
  2
AcDbPlaceHolder
  3
AutoCAD 2000
 90
        0
280
     0
281
     0
  0
CLASS
  1
VBA_PROJECT
  2
AcDbVbaProject
  3
acadvba
 90
        0
280
     0
281
     0
  0
CLASS
  1
WIPEOUT
  2
AcDbWipeout
  3
WipeOut|AutoCAD Express Tool|expresstools@autodesk.com
 90
      127
280
     0
281
     1
  0
CLASS
  1
WIPEOUTVARIABLES
  2
AcDbWipeoutVariables
  3
WipeOut|AutoCAD Express Tool|expresstools@autodesk.com
 90
        0
280
     0
281
     0
  0
CLASS
  1
RTEXT
  2
RText
  3
RText|AutoCAD Express Tool|expresstools@autodesk.com
 90
        0
280
     0
281
     1
  0
CLASS
  1
ARCALIGNEDTEXT
  2
AcDbArcAlignedText
  3
ATEXT|AutoCAD Express Tool|expresstools@autodesk.com
 90
        0
280
     0
281
     1
  0
CLASS
  1
ACAD_PROXY_OBJECT_WRAPPER
  2
AcDbProxyObjectWrapper
  3
AutoCAD 2000
 90
        0
280
     0
281
     0
  0
CLASS
  1
LONG_TRANSACTION
  2
AcDbLongTransaction
  3
AutoCAD 2000
 90
        0
280
     0
281
     0
  0
CLASS
  1
LWPOLYLINE
  2
AcDbPolyline
  3
AutoCAD 2000
 90
        0
280
     0
281
     1
  0
CLASS
  1
HATCH
  2
AcDbHatch
  3
AutoCAD 2000
 90
        0
280
     0
281
     1
  0
CLASS
  1
XRECORD
  2
AcDbXrecord
  3
AutoCAD 2000
 90
        0
280
     0
281
     0
  0
ENDSEC
  0
SECTION
  2
TABLES
  0
TABLE
  2
VPORT
  5
7
330
0
100
AcDbSymbolTable
 70
     3
  0
VPORT
  5
31B
330
7
100
AcDbSymbolTableRecord
100
AcDbViewportTableRecord
  2
*ACTIVE
 70
     0
 10
0.0
 20
0.0
 11
1.0
 21
1.0
 12
4446.012212278729
 22
6128.270303697005
 13
0.0
 23
0.0
 14
1.0
 24
1.0
 15
0.0
 25
0.0
 16
0.0
 26
0.0
 36
1.0
 17
0.0
 27
0.0
 37
0.0
 40
215904.8302942243
 41
1.478908188585607
 42
50.0
 43
0.0
 44
0.0
 50
0.0
 51
0.0
 71
     0
 72
  2000
 73
     1
 74
     1
 75
     0
 76
     0
 77
     0
 78
     0
  0
ENDTAB
  0
TABLE
  2
LTYPE
  5
4
330
0
100
AcDbSymbolTable
 70
    11
  0
LTYPE
  5
11
330
4
100
AcDbSymbolTableRecord
100
AcDbLinetypeTableRecord
  2
BYBLOCK
 70
     0
  3

 72
    65
 73
     0
 40
0.0
  0
LTYPE
  5
12
330
4
100
AcDbSymbolTableRecord
100
AcDbLinetypeTableRecord
  2
BYLAYER
 70
     0
  3

 72
    65
 73
     0
 40
0.0
  0
LTYPE
  5
13
330
4
100
AcDbSymbolTableRecord
100
AcDbLinetypeTableRecord
  2
CONTINUOUS
 70
     0
  3
Solid line
 72
    65
 73
     0
 40
0.0
  0
LTYPE
  5
26
330
4
100
AcDbSymbolTableRecord
100
AcDbLinetypeTableRecord
  2
STYLE_01
 70
     0
  3

 72
    65
 73
     2
 40
0.4166412353515625
 49
0.208282470703125
 74
     0
 49
-0.2083587646484375
 74
     0
  0
LTYPE
  5
27
330
4
100
AcDbSymbolTableRecord
100
AcDbLinetypeTableRecord
  2
STYLE_02
 70
     0
  3

 72
    65
 73
     2
 40
0.694427490234375
 49
0.4860687255859375
 74
     0
 49
-0.2083587646484375
 74
     0
  0
LTYPE
  5
28
330
4
100
AcDbSymbolTableRecord
100
AcDbLinetypeTableRecord
  2
STYLE_03
 70
     0
  3

 72
    65
 73
     2
 40
1.25
 49
1.041641235351562
 74
     0
 49
-0.2083587646484375
 74
     0
  0
LTYPE
  5
29
330
4
100
AcDbSymbolTableRecord
100
AcDbLinetypeTableRecord
  2
STYLE_04
 70
     0
  3

 72
    65
 73
     2
 40
1.5277099609375
 49
1.319427490234375
 74
     0
 49
-0.208282470703125
 74
     0
  0
LTYPE
  5
2A
330
4
100
AcDbSymbolTableRecord
100
AcDbLinetypeTableRecord
  2
STYLE_05
 70
     0
  3

 72
    65
 73
     2
 40
0.208282470703125
 49
0.069427490234375
 74
     0
 49
-0.13885498046875
 74
     0
  0
LTYPE
  5
2B
330
4
100
AcDbSymbolTableRecord
100
AcDbLinetypeTableRecord
  2
STYLE_06
 70
     0
  3

 72
    65
 73
     4
 40
1.041641235351562
 49
0.625
 74
     0
 49
-0.208282470703125
 74
     0
 49
0.069427490234375
 74
     0
 49
-0.1389312744140625
 74
     0
  0
LTYPE
  5
2C
330
4
100
AcDbSymbolTableRecord
100
AcDbLinetypeTableRecord
  2
STYLE_07
 70
     0
  3

 72
    65
 73
     6
 40
1.875
 49
0.625
 74
     0
 49
-0.208282470703125
 74
     0
 49
0.625
 74
     0
 49
-0.2083587646484375
 74
     0
 49
0.069427490234375
 74
     0
 49
-0.1389312744140625
 74
     0
  0
LTYPE
  5
2D
330
4
100
AcDbSymbolTableRecord
100
AcDbLinetypeTableRecord
  2
STYLE_08
 70
     0
  3

 72
    65
 73
     6
 40
1.25
 49
0.625
 74
     0
 49
-0.208282470703125
 74
     0
 49
0.069427490234375
 74
     0
 49
-0.1389312744140625
 74
     0
 49
0.069427490234375
 74
     0
 49
-0.1389312744140625
 74
     0
  0
LTYPE
  5
2E
330
4
100
AcDbSymbolTableRecord
100
AcDbLinetypeTableRecord
  2
STYLE_09
 70
     0
  3

 72
    65
 73
     4
 40
5.0
 49
3.75
 74
     0
 49
-0.2777862548828125
 74
     0
 49
0.694427490234375
 74
     0
 49
-0.2777862548828125
 74
     0
  0
LTYPE
  5
2F
330
4
100
AcDbSymbolTableRecord
100
AcDbLinetypeTableRecord
  2
STYLE_10
 70
     0
  3

 72
    65
 73
     6
 40
5.9375
 49
3.75
 74
     0
 49
-0.2777862548828125
 74
     0
 49
0.694427490234375
 74
     0
 49
-0.2777862548828125
 74
     0
 49
0.625
 74
     0
 49
-0.3125
 74
     0
  0
ENDTAB
  0
TABLE
  2
LAYER
  5
2
330
0
100
AcDbSymbolTable
 70
     3
  0
LAYER
  5
14
330
2
100
AcDbSymbolTableRecord
100
AcDbLayerTableRecord
  2
0
 70
     0
 62
     7
  6
CONTINUOUS
  0
LAYER
  5
30
330
2
100
AcDbSymbolTableRecord
100
AcDbLayerTableRecord
  2
一般
 70
     0
 62
     7
  6
CONTINUOUS
  0
LAYER
  5
31
330
2
100
AcDbSymbolTableRecord
100
AcDbLayerTableRecord
  2
寸法
 70
     0
 62
     7
  6
CONTINUOUS
  0
ENDTAB
  0
TABLE
  2
STYLE
  5
3
330
0
100
AcDbSymbolTable
 70
     2
  0
STYLE
  5
17
330
3
100
AcDbSymbolTableRecord
100
AcDbTextStyleTableRecord
  2
STANDARD
 70
     0
 40
0.0
 41
1.0
 50
0.0
 71
     0
 42
0.0
  3
txt
  4
BIGFONT.SHX
  0
STYLE
  5
25
330
3
100
AcDbSymbolTableRecord
100
AcDbTextStyleTableRecord
  2
OSAKA
 70
     0
 40
0.0
 41
1.0
 50
0.0
 71
     0
 42
0.0
  3

  4
Osaka
1001
ACAD
1000
Osaka
1071
        0
  0
ENDTAB
  0
TABLE
  2
VIEW
  5
5
330
0
100
AcDbSymbolTable
 70
     0
  0
ENDTAB
  0
TABLE
  2
UCS
  5
6
330
0
100
AcDbSymbolTable
 70
     0
  0
ENDTAB
  0
TABLE
  2
APPID
  5
8
330
0
100
AcDbSymbolTable
 70
     1
  0
APPID
  5
16
330
8
100
AcDbSymbolTableRecord
100
AcDbRegAppTableRecord
  2
ACAD
 70
     0
  0
ENDTAB
  0
TABLE
  2
DIMSTYLE
  5
9
330
0
100
AcDbSymbolTable
 70
     1
  0
DIMSTYLE
105
18
330
9
100
AcDbSymbolTableRecord
100
AcDbDimStyleTableRecord
  2
STANDARD
 70
     0
  3

  4

  5

  6

  7

 40
1.0
 41
0.18
 42
0.0625
 43
0.38
 44
0.18
 45
0.0
 46
0.0
 47
0.0
 48
0.0
140
0.18
141
0.09
142
0.0
143
25.4
144
1.0
145
0.0
146
1.0
147
0.09
 71
     0
 72
     0
 73
     1
 74
     1
 75
     0
 76
     0
 77
     0
 78
     0
170
     0
171
     2
172
     0
173
     0
174
     0
175
     0
176
     0
177
     0
178
     0
270
     2
271
     4
272
     4
273
     2
274
     2
340
17
275
     0
280
     0
281
     0
282
     0
283
     1
284
     0
285
     0
286
     0
287
     3
288
     0
  0
ENDTAB
  0
TABLE
  2
BLOCK_RECORD
  5
1
330
0
100
AcDbSymbolTable
 70
     1
  0
BLOCK_RECORD
  5
A
102
{ACAD_XDICTIONARY
360
33D
102
}
330
1
100
AcDbSymbolTableRecord
100
AcDbBlockTableRecord
  2
*MODEL_SPACE
  0
BLOCK_RECORD
  5
B
102
{ACAD_XDICTIONARY
360
33F
102
}
330
1
100
AcDbSymbolTableRecord
100
AcDbBlockTableRecord
  2
*PAPER_SPACE
  0
BLOCK_RECORD
  5
24
330
1
100
AcDbSymbolTableRecord
100
AcDbBlockTableRecord
  2
グル_プ
  0
ENDTAB
  0
ENDSEC
  0
SECTION
  2
BLOCKS
  0
BLOCK
  5
D
330
A
100
AcDbEntity
  8
0
100
AcDbBlockBegin
  2
*MODEL_SPACE
 70
     0
 10
0.0
 20
0.0
 30
0.0
  3
*MODEL_SPACE
  1

  0
ENDBLK
  5
E
330
A
100
AcDbEntity
  8
0
100
AcDbBlockEnd
  0
BLOCK
  5
F
330
B
100
AcDbEntity
 67
     1
  8
0
100
AcDbBlockBegin
  2
*PAPER_SPACE
 70
     0
 10
0.0
 20
0.0
 30
0.0
  3
*PAPER_SPACE
  1

  0
ENDBLK
  5
10
330
B
100
AcDbEntity
 67
     1
  8
0
100
AcDbBlockEnd
  0
BLOCK
  5
32
330
24
100
AcDbEntity
  8
一般
100
AcDbBlockBegin
  2
グル_プ
 70
     0
 10
0.0
 20
0.0
 30
0.0
  3
グル_プ
  1

  0
LINE
  5
33
330
24
100
AcDbEntity
  8
一般
  6
CONTINUOUS
 62
     7
100
AcDbLine
 10
-59000.0
 20
-95200.0
 30
0.0
 11
-49000.0
 21
-95200.0
 31
0.0
  0
LINE
  5
34
330
24
100
AcDbEntity
  8
一般
  6
CONTINUOUS
 62
     7
100
AcDbLine
 10
-59000.0
 20
-94700.0
 30
0.0
 11
-49000.0
 21
-94700.0
 31
0.0
  0
LINE
  5
35
330
24
100
AcDbEntity
  8
一般
  6
CONTINUOUS
 62
     7
100
AcDbLine
 10
-59000.0
 20
-95700.0
 30
0.0
 11
-49000.0
 21
-95700.0
 31
0.0
  0
ENDBLK
  5
36
330
24
100
AcDbEntity
  8
一般
100
AcDbBlockEnd
  0
ENDSEC
  0
SECTION
  2
ENTITIES
  0
POLYLINE
  5
37
330
A
100
AcDbEntity
  8
一般
  6
CONTINUOUS
 62
     7
100
AcDb2dPolyline
 66
     1
 10
0.0
 20
0.0
 30
0.0
 75
     5
  0
VERTEX
  5
38
330
37
100
AcDbEntity
  8
一般
  6
CONTINUOUS
 62
     7
100
AcDbVertex
100
AcDb2dVertex
 10
-92500.0
 20
81956.5400843882
 30
0.0
  0
VERTEX
  5
39
330
37
100
AcDbEntity
  8
一般
  6
CONTINUOUS
 62
     7
100
AcDbVertex
100
AcDb2dVertex
 10
-85500.0
 20
83856.5400843882
 30
0.0
  0
VERTEX
  5
3A
330
37
100
AcDbEntity
  8
一般
  6
CONTINUOUS
 62
     7
100
AcDbVertex
100
AcDb2dVertex
 10
-80500.0
 20
85256.5400843882
 30
0.0
  0
VERTEX
  5
3B
330
37
100
AcDbEntity
  8
一般
  6
CONTINUOUS
 62
     7
100
AcDbVertex
100
AcDb2dVertex
 10
-76000.0
 20
86356.5400843882
 30
0.0
  0
VERTEX
  5
3C
330
37
100
AcDbEntity
  8
一般
  6
CONTINUOUS
 62
     7
100
AcDbVertex
100
AcDb2dVertex
 10
-72100.0
 20
87056.5400843882
 30
0.0
  0
VERTEX
  5
3D
330
37
100
AcDbEntity
  8
一般
  6
CONTINUOUS
 62
     7
100
AcDbVertex
100
AcDb2dVertex
 10
-67900.0
 20
87456.54008438819
 30
0.0
  0
VERTEX
  5
3E
330
37
100
AcDbEntity
  8
一般
  6
CONTINUOUS
 62
     7
100
AcDbVertex
100
AcDb2dVertex
 10
-62400.0
 20
87456.54008438819
 30
0.0
  0
VERTEX
  5
3F
330
37
100
AcDbEntity
  8
一般
  6
CONTINUOUS
 62
     7
100
AcDbVertex
100
AcDb2dVertex
 10
-55000.0
 20
86556.54008438819
 30
0.0
  0
VERTEX
  5
40
330
37
100
AcDbEntity
  8
一般
  6
CONTINUOUS
 62
     7
100
AcDbVertex
100
AcDb2dVertex
 10
-45600.0
 20
84456.5400843882
 30
0.0
  0
VERTEX
  5
41
330
37
100
AcDbEntity
  8
一般
  6
CONTINUOUS
 62
     7
100
AcDbVertex
100
AcDb2dVertex
 10
-39300.0
 20
83156.54008438819
 30
0.0
  0
VERTEX
  5
42
330
37
100
AcDbEntity
  8
一般
  6
CONTINUOUS
 62
     7
100
AcDbVertex
100
AcDb2dVertex
 10
-32800.0
 20
82156.5400843882
 30
0.0
  0
VERTEX
  5
43
330
37
100
AcDbEntity
  8
一般
  6
CONTINUOUS
 62
     7
100
AcDbVertex
100
AcDb2dVertex
 10
-27100.0
 20
81656.54008438819
 30
0.0
  0
VERTEX
  5
44
330
37
100
AcDbEntity
  8
一般
  6
CONTINUOUS
 62
     7
100
AcDbVertex
100
AcDb2dVertex
 10
-19600.0
 20
81356.5400843882
 30
0.0
  0
VERTEX
  5
45
330
37
100
AcDbEntity
  8
一般
  6
CONTINUOUS
 62
     7
100
AcDbVertex
100
AcDb2dVertex
 10
-11600.0
 20
81356.5400843882
 30
0.0
  0
VERTEX
  5
46
330
37
100
AcDbEntity
  8
一般
  6
CONTINUOUS
 62
     7
100
AcDbVertex
100
AcDb2dVertex
 10
-4900.0
 20
81356.5400843882
 30
0.0
  0
VERTEX
  5
47
330
37
100
AcDbEntity
  8
一般
  6
CONTINUOUS
 62
     7
100
AcDbVertex
100
AcDb2dVertex
 10
-1500.0
 20
81156.5400843882
 30
0.0
  0
VERTEX
  5
48
330
37
100
AcDbEntity
  8
一般
  6
CONTINUOUS
 62
     7
100
AcDbVertex
100
AcDb2dVertex
 10
2500.0
 20
80356.5400843882
 30
0.0
  0
VERTEX
  5
49
330
37
100
AcDbEntity
  8
一般
  6
CONTINUOUS
 62
     7
100
AcDbVertex
100
AcDb2dVertex
 10
5400.0
 20
79556.54008438819
 30
0.0
  0
VERTEX
  5
4A
330
37
100
AcDbEntity
  8
一般
  6
CONTINUOUS
 62
     7
100
AcDbVertex
100
AcDb2dVertex
 10
8500.0
 20
78156.54008438819
 30
0.0
  0
VERTEX
  5
4B
330
37
100
AcDbEntity
  8
一般
  6
CONTINUOUS
 62
     7
100
AcDbVertex
100
AcDb2dVertex
 10
11200.0
 20
76856.54008438819
 30
0.0
  0
VERTEX
  5
4C
330
37
100
AcDbEntity
  8
一般
  6
CONTINUOUS
 62
     7
100
AcDbVertex
100
AcDb2dVertex
 10
14600.0
 20
74756.54008438819
 30
0.0
  0
VERTEX
  5
4D
330
37
100
AcDbEntity
  8
一般
  6
CONTINUOUS
 62
     7
100
AcDbVertex
100
AcDb2dVertex
 10
17600.0
 20
72356.54008438819
 30
0.0
  0
VERTEX
  5
4E
330
37
100
AcDbEntity
  8
一般
  6
CONTINUOUS
 62
     7
100
AcDbVertex
100
AcDb2dVertex
 10
18200.0
 20
71856.54008438817
 30
0.0
  0
SEQEND
  5
4F
330
37
100
AcDbEntity
  8
一般
  6
CONTINUOUS
 62
     7
  0
POLYLINE
  5
51
330
A
100
AcDbEntity
  8
一般
  6
CONTINUOUS
 62
     7
100
AcDb2dPolyline
 66
     1
 10
0.0
 20
0.0
 30
0.0
 75
     5
  0
VERTEX
  5
52
330
51
100
AcDbEntity
  8
一般
  6
CONTINUOUS
 62
     7
100
AcDbVertex
100
AcDb2dVertex
 10
-92500.0
 20
77656.54008438819
 30
0.0
  0
VERTEX
  5
53
330
51
100
AcDbEntity
  8
一般
  6
CONTINUOUS
 62
     7
100
AcDbVertex
100
AcDb2dVertex
 10
-87300.0
 20
79156.54008438819
 30
0.0
  0
VERTEX
  5
54
330
51
100
AcDbEntity
  8
一般
  6
CONTINUOUS
 62
     7
100
AcDbVertex
100
AcDb2dVertex
 10
-82800.0
 20
80456.5400843882
 30
0.0
  0
VERTEX
  5
55
330
51
100
AcDbEntity
  8
一般
  6
CONTINUOUS
 62
     7
100
AcDbVertex
100
AcDb2dVertex
 10
-77600.0
 20
81856.54008438818
 30
0.0
  0
VERTEX
  5
56
330
51
100
AcDbEntity
  8
一般
  6
CONTINUOUS
 62
     7
100
AcDbVertex
100
AcDb2dVertex
 10
-73100.0
 20
82956.5400843882
 30
0.0
  0
VERTEX
  5
57
330
51
100
AcDbEntity
  8
一般
  6
CONTINUOUS
 62
     7
100
AcDbVertex
100
AcDb2dVertex
 10
-67700.0
 20
83456.54008438819
 30
0.0
  0
VERTEX
  5
58
330
51
100
AcDbEntity
  8
一般
  6
CONTINUOUS
 62
     7
100
AcDbVertex
100
AcDb2dVertex
 10
-63000.0
 20
83456.54008438819
 30
0.0
  0
VERTEX
  5
59
330
51
100
AcDbEntity
  8
一般
  6
CONTINUOUS
 62
     7
100
AcDbVertex
100
AcDb2dVertex
 10
-56300.0
 20
82856.5400843882
 30
0.0
  0
VERTEX
  5
5A
330
51
100
AcDbEntity
  8
一般
  6
CONTINUOUS
 62
     7
100
AcDbVertex
100
AcDb2dVertex
 10
-51500.0
 20
81756.54008438819
 30
0.0
  0
VERTEX
  5
5B
330
51
100
AcDbEntity
  8
一般
  6
CONTINUOUS
 62
     7
100
AcDbVertex
100
AcDb2dVertex
 10
-49000.0
 20
81056.5400843882
 30
0.0
  0
VERTEX
  5
5C
330
51
100
AcDbEntity
  8
一般
  6
CONTINUOUS
 62
     7
100
AcDbVertex
100
AcDb2dVertex
 10
-48100.0
 20
80456.5400843882
 30
0.0
  0
VERTEX
  5
5D
330
51
100
AcDbEntity
  8
一般
  6
CONTINUOUS
 62
     7
100
AcDbVertex
100
AcDb2dVertex
 10
-47400.0
 20
79656.5400843882
 30
0.0
  0
VERTEX
  5
5E
330
51
100
AcDbEntity
  8
一般
  6
CONTINUOUS
 62
     7
100
AcDbVertex
100
AcDb2dVertex
 10
-47100.0
 20
78156.54008438819
 30
0.0
  0
VERTEX
  5
5F
330
51
100
AcDbEntity
  8
一般
  6
CONTINUOUS
 62
     7
100
AcDbVertex
100
AcDb2dVertex
 10
-47300.0
 20
77056.54008438819
 30
0.0
  0
VERTEX
  5
60
330
51
100
AcDbEntity
  8
一般
  6
CONTINUOUS
 62
     7
100
AcDbVertex
100
AcDb2dVertex
 10
-48100.0
 20
75856.5400843882
 30
0.0
  0
VERTEX
  5
61
330
51
100
AcDbEntity
  8
一般
  6
CONTINUOUS
 62
     7
100
AcDbVertex
100
AcDb2dVertex
 10
-49300.0
 20
75256.54008438819
 30
0.0
  0
VERTEX
  5
62
330
51
100
AcDbEntity
  8
一般
  6
CONTINUOUS
 62
     7
100
AcDbVertex
100
AcDb2dVertex
 10
-58100.0
 20
70756.54008438816
 30
0.0
  0
VERTEX
  5
63
330
51
100
AcDbEntity
  8
一般
  6
CONTINUOUS
 62
     7
100
AcDbVertex
100
AcDb2dVertex
 10
-62700.0
 20
67956.54008438816
 30
0.0
  0
VERTEX
  5
64
330
51
100
AcDbEntity
  8
一般
  6
CONTINUOUS
 62
     7
100
AcDbVertex
100
AcDb2dVertex
 10
-65500.0
 20
65656.54008438817
 30
0.0
  0
VERTEX
  5
65
330
51
100
AcDbEntity
  8
一般
  6
CONTINUOUS
 62
     7
100
AcDbVertex
100
AcDb2dVertex
 10
-67600.0
 20
63056.54008438816
 30
0.0
  0
VERTEX
  5
66
330
51
100
AcDbEntity
  8
一般
  6
CONTINUOUS
 62
     7
100
AcDbVertex
100
AcDb2dVertex
 10
-69200.0
 20
60456.54008438816
 30
0.0
  0
VERTEX
  5
67
330
51
100
AcDbEntity
  8
一般
  6
CONTINUOUS
 62
     7
100
AcDbVertex
100
AcDb2dVertex
 10
-69700.0
 20
59156.54008438816
 30
0.0
  0
VERTEX
  5
68
330
51
100
AcDbEntity
  8
一般
  6
CONTINUOUS
 62
     7
100
AcDbVertex
100
AcDb2dVertex
 10
-70200.0
 20
58656.54008438816
 30
0.0
  0
VERTEX
  5
69
330
51
100
AcDbEntity
  8
一般
  6
CONTINUOUS
 62
     7
100
AcDbVertex
100
AcDb2dVertex
 10
-71000.0
 20
58356.54008438816
 30
0.0
  0
VERTEX
  5
6A
330
51
100
AcDbEntity
  8
一般
  6
CONTINUOUS
 62
     7
100
AcDbVertex
100
AcDb2dVertex
 10
-71700.0
 20
58356.54008438816
 30
0.0
  0
VERTEX
  5
6B
330
51
100
AcDbEntity
  8
一般
  6
CONTINUOUS
 62
     7
100
AcDbVertex
100
AcDb2dVertex
 10
-74900.0
 20
59356.54008438817
 30
0.0
  0
VERTEX
  5
6C
330
51
100
AcDbEntity
  8
一般
  6
CONTINUOUS
 62
     7
100
AcDbVertex
100
AcDb2dVertex
 10
-76900.0
 20
60256.54008438817
 30
0.0
  0
SEQEND
  5
6D
330
51
100
AcDbEntity
  8
一般
  6
CONTINUOUS
 62
     7
  0
POLYLINE
  5
6F
330
A
100
AcDbEntity
  8
一般
  6
CONTINUOUS
 62
     7
100
AcDb2dPolyline
 66
     1
 10
0.0
 20
0.0
 30
0.0
 75
     5
  0
VERTEX
  5
70
330
6F
100
AcDbEntity
  8
一般
  6
CONTINUOUS
 62
     7
100
AcDbVertex
100
AcDb2dVertex
 10
-64700.0
 20
51556.54008438816
 30
0.0
  0
VERTEX
  5
71
330
6F
100
AcDbEntity
  8
一般
  6
CONTINUOUS
 62
     7
100
AcDbVertex
100
AcDb2dVertex
 10
-67400.0
 20
55456.54008438816
 30
0.0
  0
VERTEX
  5
72
330
6F
100
AcDbEntity
  8
一般
  6
CONTINUOUS
 62
     7
100
AcDbVertex
100
AcDb2dVertex
 10
-67800.0
 20
56056.54008438817
 30
0.0
  0
VERTEX
  5
73
330
6F
100
AcDbEntity
  8
一般
  6
CONTINUOUS
 62
     7
100
AcDbVertex
100
AcDb2dVertex
 10
-67900.0
 20
56856.54008438817
 30
0.0
  0
VERTEX
  5
74
330
6F
100
AcDbEntity
  8
一般
  6
CONTINUOUS
 62
     7
100
AcDbVertex
100
AcDb2dVertex
 10
-67700.0
 20
57556.54008438816
 30
0.0
  0
VERTEX
  5
75
330
6F
100
AcDbEntity
  8
一般
  6
CONTINUOUS
 62
     7
100
AcDbVertex
100
AcDb2dVertex
 10
-67100.0
 20
58756.54008438816
 30
0.0
  0
VERTEX
  5
76
330
6F
100
AcDbEntity
  8
一般
  6
CONTINUOUS
 62
     7
100
AcDbVertex
100
AcDb2dVertex
 10
-66000.0
 20
60956.54008438816
 30
0.0
  0
VERTEX
  5
77
330
6F
100
AcDbEntity
  8
一般
  6
CONTINUOUS
 62
     7
100
AcDbVertex
100
AcDb2dVertex
 10
-64500.0
 20
62756.54008438817
 30
0.0
  0
VERTEX
  5
78
330
6F
100
AcDbEntity
  8
一般
  6
CONTINUOUS
 62
     7
100
AcDbVertex
100
AcDb2dVertex
 10
-63300.0
 20
64156.54008438816
 30
0.0
  0
VERTEX
  5
79
330
6F
100
AcDbEntity
  8
一般
  6
CONTINUOUS
 62
     7
100
AcDbVertex
100
AcDb2dVertex
 10
-60900.0
 20
66256.54008438816
 30
0.0
  0
VERTEX
  5
7A
330
6F
100
AcDbEntity
  8
一般
  6
CONTINUOUS
 62
     7
100
AcDbVertex
100
AcDb2dVertex
 10
-56700.0
 20
68556.54008438817
 30
0.0
  0
VERTEX
  5
7B
330
6F
100
AcDbEntity
  8
一般
  6
CONTINUOUS
 62
     7
100
AcDbVertex
100
AcDb2dVertex
 10
-51100.0
 20
71656.54008438816
 30
0.0
  0
VERTEX
  5
7C
330
6F
100
AcDbEntity
  8
一般
  6
CONTINUOUS
 62
     7
100
AcDbVertex
100
AcDb2dVertex
 10
-47300.0
 20
73456.54008438819
 30
0.0
  0
VERTEX
  5
7D
330
6F
100
AcDbEntity
  8
一般
  6
CONTINUOUS
 62
     7
100
AcDbVertex
100
AcDb2dVertex
 10
-42700.0
 20
74856.54008438819
 30
0.0
  0
VERTEX
  5
7E
330
6F
100
AcDbEntity
  8
一般
  6
CONTINUOUS
 62
     7
100
AcDbVertex
100
AcDb2dVertex
 10
-38800.0
 20
75956.54008438819
 30
0.0
  0
VERTEX
  5
7F
330
6F
100
AcDbEntity
  8
一般
  6
CONTINUOUS
 62
     7
100
AcDbVertex
100
AcDb2dVertex
 10
-34100.0
 20
76656.54008438819
 30
0.0
  0
VERTEX
  5
80
330
6F
100
AcDbEntity
  8
一般
  6
CONTINUOUS
 62
     7
100
AcDbVertex
100
AcDb2dVertex
 10
-30500.0
 20
76956.54008438819
 30
0.0
  0
VERTEX
  5
81
330
6F
100
AcDbEntity
  8
一般
  6
CONTINUOUS
 62
     7
100
AcDbVertex
100
AcDb2dVertex
 10
-16000.0
 20
77256.54008438819
 30
0.0
  0
VERTEX
  5
82
330
6F
100
AcDbEntity
  8
一般
  6
CONTINUOUS
 62
     7
100
AcDbVertex
100
AcDb2dVertex
 10
-6500.0
 20
77356.54008438819
 30
0.0
  0
VERTEX
  5
83
330
6F
100
AcDbEntity
  8
一般
  6
CONTINUOUS
 62
     7
100
AcDbVertex
100
AcDb2dVertex
 10
-2500.0
 20
77156.5400843882
 30
0.0
  0
VERTEX
  5
84
330
6F
100
AcDbEntity
  8
一般
  6
CONTINUOUS
 62
     7
100
AcDbVertex
100
AcDb2dVertex
 10
800.0
 20
76556.54008438819
 30
0.0
  0
VERTEX
  5
85
330
6F
100
AcDbEntity
  8
一般
  6
CONTINUOUS
 62
     7
100
AcDbVertex
100
AcDb2dVertex
 10
4400.0
 20
75456.5400843882
 30
0.0
  0
VERTEX
  5
86
330
6F
100
AcDbEntity
  8
一般
  6
CONTINUOUS
 62
     7
100
AcDbVertex
100
AcDb2dVertex
 10
8000.0
 20
74156.54008438819
 30
0.0
  0
VERTEX
  5
87
330
6F
100
AcDbEntity
  8
一般
  6
CONTINUOUS
 62
     7
100
AcDbVertex
100
AcDb2dVertex
 10
11800.0
 20
71856.54008438817
 30
0.0
  0
VERTEX
  5
88
330
6F
100
AcDbEntity
  8
一般
  6
CONTINUOUS
 62
     7
100
AcDbVertex
100
AcDb2dVertex
 10
13900.0
 20
70456.54008438816
 30
0.0
  0
VERTEX
  5
89
330
6F
100
AcDbEntity
  8
一般
  6
CONTINUOUS
 62
     7
100
AcDbVertex
100
AcDb2dVertex
 10
15500.0
 20
68956.54008438817
 30
0.0
  0
VERTEX
  5
8A
330
6F
100
AcDbEntity
  8
一般
  6
CONTINUOUS
 62
     7
100
AcDbVertex
100
AcDb2dVertex
 10
17200.0
 20
67056.54008438816
 30
0.0
  0
VERTEX
  5
8B
330
6F
100
AcDbEntity
  8
一般
  6
CONTINUOUS
 62
     7
100
AcDbVertex
100
AcDb2dVertex
 10
19300.0
 20
64856.54008438817
 30
0.0
  0
VERTEX
  5
8C
330
6F
100
AcDbEntity
  8
一般
  6
CONTINUOUS
 62
     7
100
AcDbVertex
100
AcDb2dVertex
 10
21100.0
 20
63256.54008438816
 30
0.0
  0
VERTEX
  5
8D
330
6F
100
AcDbEntity
  8
一般
  6
CONTINUOUS
 62
     7
100
AcDbVertex
100
AcDb2dVertex
 10
23300.0
 20
61356.54008438816
 30
0.0
  0
VERTEX
  5
8E
330
6F
100
AcDbEntity
  8
一般
  6
CONTINUOUS
 62
     7
100
AcDbVertex
100
AcDb2dVertex
 10
25900.0
 20
59256.54008438816
 30
0.0
  0
VERTEX
  5
8F
330
6F
100
AcDbEntity
  8
一般
  6
CONTINUOUS
 62
     7
100
AcDbVertex
100
AcDb2dVertex
 10
29200.0
 20
57456.54008438816
 30
0.0
  0
VERTEX
  5
90
330
6F
100
AcDbEntity
  8
一般
  6
CONTINUOUS
 62
     7
100
AcDbVertex
100
AcDb2dVertex
 10
32600.0
 20
55956.54008438816
 30
0.0
  0
VERTEX
  5
91
330
6F
100
AcDbEntity
  8
一般
  6
CONTINUOUS
 62
     7
100
AcDbVertex
100
AcDb2dVertex
 10
36000.0
 20
54456.54008438816
 30
0.0
  0
VERTEX
  5
92
330
6F
100
AcDbEntity
  8
一般
  6
CONTINUOUS
 62
     7
100
AcDbVertex
100
AcDb2dVertex
 10
38500.0
 20
53256.54008438816
 30
0.0
  0
VERTEX
  5
93
330
6F
100
AcDbEntity
  8
一般
  6
CONTINUOUS
 62
     7
100
AcDbVertex
100
AcDb2dVertex
 10
40900.0
 20
51256.54008438816
 30
0.0
  0
VERTEX
  5
94
330
6F
100
AcDbEntity
  8
一般
  6
CONTINUOUS
 62
     7
100
AcDbVertex
100
AcDb2dVertex
 10
42800.0
 20
48956.54008438817
 30
0.0
  0
VERTEX
  5
95
330
6F
100
AcDbEntity
  8
一般
  6
CONTINUOUS
 62
     7
100
AcDbVertex
100
AcDb2dVertex
 10
45700.0
 20
44956.54008438817
 30
0.0
  0
VERTEX
  5
96
330
6F
100
AcDbEntity
  8
一般
  6
CONTINUOUS
 62
     7
100
AcDbVertex
100
AcDb2dVertex
 10
48300.0
 20
40756.54008438817
 30
0.0
  0
VERTEX
  5
97
330
6F
100
AcDbEntity
  8
一般
  6
CONTINUOUS
 62
     7
100
AcDbVertex
100
AcDb2dVertex
 10
50200.0
 20
36656.54008438817
 30
0.0
  0
VERTEX
  5
98
330
6F
100
AcDbEntity
  8
一般
  6
CONTINUOUS
 62
     7
100
AcDbVertex
100
AcDb2dVertex
 10
52200.0
 20
31456.54008438817
 30
0.0
  0
VERTEX
  5
99
330
6F
100
AcDbEntity
  8
一般
  6
CONTINUOUS
 62
     7
100
AcDbVertex
100
AcDb2dVertex
 10
53600.0
 20
27056.54008438817
 30
0.0
  0
VERTEX
  5
9A
330
6F
100
AcDbEntity
  8
一般
  6
CONTINUOUS
 62
     7
100
AcDbVertex
100
AcDb2dVertex
 10
54300.0
 20
23656.54008438817
 30
0.0
  0
VERTEX
  5
9B
330
6F
100
AcDbEntity
  8
一般
  6
CONTINUOUS
 62
     7
100
AcDbVertex
100
AcDb2dVertex
 10
54800.0
 20
19956.54008438817
 30
0.0
  0
VERTEX
  5
9C
330
6F
100
AcDbEntity
  8
一般
  6
CONTINUOUS
 62
     7
100
AcDbVertex
100
AcDb2dVertex
 10
55100.0
 20
16056.54008438817
 30
0.0
  0
VERTEX
  5
9D
330
6F
100
AcDbEntity
  8
一般
  6
CONTINUOUS
 62
     7
100
AcDbVertex
100
AcDb2dVertex
 10
55100.0
 20
12056.54008438817
 30
0.0
  0
VERTEX
  5
9E
330
6F
100
AcDbEntity
  8
一般
  6
CONTINUOUS
 62
     7
100
AcDbVertex
100
AcDb2dVertex
 10
55100.0
 20
8856.540084388177
 30
0.0
  0
VERTEX
  5
9F
330
6F
100
AcDbEntity
  8
一般
  6
CONTINUOUS
 62
     7
100
AcDbVertex
100
AcDb2dVertex
 10
55200.0
 20
5156.540084388179
 30
0.0
  0
VERTEX
  5
A0
330
6F
100
AcDbEntity
  8
一般
  6
CONTINUOUS
 62
     7
100
AcDbVertex
100
AcDb2dVertex
 10
55500.0
 20
1956.540084388179
 30
0.0
  0
VERTEX
  5
A1
330
6F
100
AcDbEntity
  8
一般
  6
CONTINUOUS
 62
     7
100
AcDbVertex
100
AcDb2dVertex
 10
56100.0
 20
-1743.45991561182
 30
0.0
  0
VERTEX
  5
A2
330
6F
100
AcDbEntity
  8
一般
  6
CONTINUOUS
 62
     7
100
AcDbVertex
100
AcDb2dVertex
 10
57100.0
 20
-5543.45991561182
 30
0.0
  0
VERTEX
  5
A3
330
6F
100
AcDbEntity
  8
一般
  6
CONTINUOUS
 62
     7
100
AcDbVertex
100
AcDb2dVertex
 10
58300.0
 20
-9643.459915611821
 30
0.0
  0
VERTEX
  5
A4
330
6F
100
AcDbEntity
  8
一般
  6
CONTINUOUS
 62
     7
100
AcDbVertex
100
AcDb2dVertex
 10
60300.0
 20
-14143.45991561182
 30
0.0
  0
VERTEX
  5
A5
330
6F
100
AcDbEntity
  8
一般
  6
CONTINUOUS
 62
     7
100
AcDbVertex
100
AcDb2dVertex
 10
62300.0
 20
-17843.45991561182
 30
0.0
  0
VERTEX
  5
A6
330
6F
100
AcDbEntity
  8
一般
  6
CONTINUOUS
 62
     7
100
AcDbVertex
100
AcDb2dVertex
 10
65400.0
 20
-23643.45991561183
 30
0.0
  0
VERTEX
  5
A7
330
6F
100
AcDbEntity
  8
一般
  6
CONTINUOUS
 62
     7
100
AcDbVertex
100
AcDb2dVertex
 10
66800.0
 20
-25943.45991561183
 30
0.0
  0
SEQEND
  5
A8
330
6F
100
AcDbEntity
  8
一般
  6
CONTINUOUS
 62
     7
  0
POLYLINE
  5
AA
330
A
100
AcDbEntity
  8
一般
  6
CONTINUOUS
 62
     7
100
AcDb2dPolyline
 66
     1
 10
0.0
 20
0.0
 30
0.0
 75
     5
  0
VERTEX
  5
AB
330
AA
100
AcDbEntity
  8
一般
  6
CONTINUOUS
 62
     7
100
AcDbVertex
100
AcDb2dVertex
 10
66800.0
 20
-25943.45991561183
 30
0.0
  0
VERTEX
  5
AC
330
AA
100
AcDbEntity
  8
一般
  6
CONTINUOUS
 62
     7
100
AcDbVertex
100
AcDb2dVertex
 10
67500.0
 20
-28143.45991561182
 30
0.0
  0
VERTEX
  5
AD
330
AA
100
AcDbEntity
  8
一般
  6
CONTINUOUS
 62
     7
100
AcDbVertex
100
AcDb2dVertex
 10
67700.0
 20
-29743.45991561182
 30
0.0
  0
VERTEX
  5
AE
330
AA
100
AcDbEntity
  8
一般
  6
CONTINUOUS
 62
     7
100
AcDbVertex
100
AcDb2dVertex
 10
67800.0
 20
-31343.45991561183
 30
0.0
  0
VERTEX
  5
AF
330
AA
100
AcDbEntity
  8
一般
  6
CONTINUOUS
 62
     7
100
AcDbVertex
100
AcDb2dVertex
 10
67600.0
 20
-33043.45991561183
 30
0.0
  0
VERTEX
  5
B0
330
AA
100
AcDbEntity
  8
一般
  6
CONTINUOUS
 62
     7
100
AcDbVertex
100
AcDb2dVertex
 10
67100.0
 20
-34743.45991561182
 30
0.0
  0
VERTEX
  5
B1
330
AA
100
AcDbEntity
  8
一般
  6
CONTINUOUS
 62
     7
100
AcDbVertex
100
AcDb2dVertex
 10
65900.0
 20
-36943.45991561182
 30
0.0
  0
VERTEX
  5
B2
330
AA
100
AcDbEntity
  8
一般
  6
CONTINUOUS
 62
     7
100
AcDbVertex
100
AcDb2dVertex
 10
64400.0
 20
-38443.45991561183
 30
0.0
  0
VERTEX
  5
B3
330
AA
100
AcDbEntity
  8
一般
  6
CONTINUOUS
 62
     7
100
AcDbVertex
100
AcDb2dVertex
 10
62700.0
 20
-39743.45991561182
 30
0.0
  0
VERTEX
  5
B4
330
AA
100
AcDbEntity
  8
一般
  6
CONTINUOUS
 62
     7
100
AcDbVertex
100
AcDb2dVertex
 10
60100.0
 20
-40843.45991561183
 30
0.0
  0
VERTEX
  5
B5
330
AA
100
AcDbEntity
  8
一般
  6
CONTINUOUS
 62
     7
100
AcDbVertex
100
AcDb2dVertex
 10
55000.0
 20
-42143.45991561183
 30
0.0
  0
VERTEX
  5
B6
330
AA
100
AcDbEntity
  8
一般
  6
CONTINUOUS
 62
     7
100
AcDbVertex
100
AcDb2dVertex
 10
50300.0
 20
-42943.45991561183
 30
0.0
  0
VERTEX
  5
B7
330
AA
100
AcDbEntity
  8
一般
  6
CONTINUOUS
 62
     7
100
AcDbVertex
100
AcDb2dVertex
 10
46900.0
 20
-43143.45991561182
 30
0.0
  0
VERTEX
  5
B8
330
AA
100
AcDbEntity
  8
一般
  6
CONTINUOUS
 62
     7
100
AcDbVertex
100
AcDb2dVertex
 10
43500.0
 20
-42943.45991561183
 30
0.0
  0
VERTEX
  5
B9
330
AA
100
AcDbEntity
  8
一般
  6
CONTINUOUS
 62
     7
100
AcDbVertex
100
AcDb2dVertex
 10
38800.0
 20
-42143.45991561183
 30
0.0
  0
VERTEX
  5
BA
330
AA
100
AcDbEntity
  8
一般
  6
CONTINUOUS
 62
     7
100
AcDbVertex
100
AcDb2dVertex
 10
22600.0
 20
-38643.45991561183
 30
0.0
  0
VERTEX
  5
BB
330
AA
100
AcDbEntity
  8
一般
  6
CONTINUOUS
 62
     7
100
AcDbVertex
100
AcDb2dVertex
 10
20000.0
 20
-38343.45991561182
 30
0.0
  0
VERTEX
  5
BC
330
AA
100
AcDbEntity
  8
一般
  6
CONTINUOUS
 62
     7
100
AcDbVertex
100
AcDb2dVertex
 10
17500.0
 20
-38343.45991561182
 30
0.0
  0
VERTEX
  5
BD
330
AA
100
AcDbEntity
  8
一般
  6
CONTINUOUS
 62
     7
100
AcDbVertex
100
AcDb2dVertex
 10
14500.0
 20
-38843.45991561183
 30
0.0
  0
VERTEX
  5
BE
330
AA
100
AcDbEntity
  8
一般
  6
CONTINUOUS
 62
     7
100
AcDbVertex
100
AcDb2dVertex
 10
12800.0
 20
-39443.45991561183
 30
0.0
  0
VERTEX
  5
BF
330
AA
100
AcDbEntity
  8
一般
  6
CONTINUOUS
 62
     7
100
AcDbVertex
100
AcDb2dVertex
 10
11900.0
 20
-39743.45991561182
 30
0.0
  0
VERTEX
  5
C0
330
AA
100
AcDbEntity
  8
一般
  6
CONTINUOUS
 62
     7
100
AcDbVertex
100
AcDb2dVertex
 10
11200.0
 20
-39443.45991561183
 30
0.0
  0
VERTEX
  5
C1
330
AA
100
AcDbEntity
  8
一般
  6
CONTINUOUS
 62
     7
100
AcDbVertex
100
AcDb2dVertex
 10
10400.0
 20
-38543.45991561182
 30
0.0
  0
VERTEX
  5
C2
330
AA
100
AcDbEntity
  8
一般
  6
CONTINUOUS
 62
     7
100
AcDbVertex
100
AcDb2dVertex
 10
8500.0
 20
-35143.45991561182
 30
0.0
  0
VERTEX
  5
C3
330
AA
100
AcDbEntity
  8
一般
  6
CONTINUOUS
 62
     7
100
AcDbVertex
100
AcDb2dVertex
 10
6300.0
 20
-31743.45991561182
 30
0.0
  0
VERTEX
  5
C4
330
AA
100
AcDbEntity
  8
一般
  6
CONTINUOUS
 62
     7
100
AcDbVertex
100
AcDb2dVertex
 10
4000.0
 20
-28743.45991561182
 30
0.0
  0
VERTEX
  5
C5
330
AA
100
AcDbEntity
  8
一般
  6
CONTINUOUS
 62
     7
100
AcDbVertex
100
AcDb2dVertex
 10
-800.0
 20
-23543.45991561182
 30
0.0
  0
VERTEX
  5
C6
330
AA
100
AcDbEntity
  8
一般
  6
CONTINUOUS
 62
     7
100
AcDbVertex
100
AcDb2dVertex
 10
-4000.0
 20
-20943.45991561182
 30
0.0
  0
VERTEX
  5
C7
330
AA
100
AcDbEntity
  8
一般
  6
CONTINUOUS
 62
     7
100
AcDbVertex
100
AcDb2dVertex
 10
-6700.0
 20
-18943.45991561182
 30
0.0
  0
VERTEX
  5
C8
330
AA
100
AcDbEntity
  8
一般
  6
CONTINUOUS
 62
     7
100
AcDbVertex
100
AcDb2dVertex
 10
-10700.0
 20
-16543.45991561181
 30
0.0
  0
VERTEX
  5
C9
330
AA
100
AcDbEntity
  8
一般
  6
CONTINUOUS
 62
     7
100
AcDbVertex
100
AcDb2dVertex
 10
-18900.0
 20
-11443.45991561181
 30
0.0
  0
VERTEX
  5
CA
330
AA
100
AcDbEntity
  8
一般
  6
CONTINUOUS
 62
     7
100
AcDbVertex
100
AcDb2dVertex
 10
-22300.0
 20
-9343.459915611822
 30
0.0
  0
VERTEX
  5
CB
330
AA
100
AcDbEntity
  8
一般
  6
CONTINUOUS
 62
     7
100
AcDbVertex
100
AcDb2dVertex
 10
-25500.0
 20
-7043.459915611821
 30
0.0
  0
VERTEX
  5
CC
330
AA
100
AcDbEntity
  8
一般
  6
CONTINUOUS
 62
     7
100
AcDbVertex
100
AcDb2dVertex
 10
-28600.0
 20
-4443.45991561182
 30
0.0
  0
VERTEX
  5
CD
330
AA
100
AcDbEntity
  8
一般
  6
CONTINUOUS
 62
     7
100
AcDbVertex
100
AcDb2dVertex
 10
-33200.0
 20
356.5400843881797
 30
0.0
  0
VERTEX
  5
CE
330
AA
100
AcDbEntity
  8
一般
  6
CONTINUOUS
 62
     7
100
AcDbVertex
100
AcDb2dVertex
 10
-35100.0
 20
2956.54008438818
 30
0.0
  0
VERTEX
  5
CF
330
AA
100
AcDbEntity
  8
一般
  6
CONTINUOUS
 62
     7
100
AcDbVertex
100
AcDb2dVertex
 10
-37300.0
 20
6156.540084388179
 30
0.0
  0
VERTEX
  5
D0
330
AA
100
AcDbEntity
  8
一般
  6
CONTINUOUS
 62
     7
100
AcDbVertex
100
AcDb2dVertex
 10
-39200.0
 20
9356.54008438818
 30
0.0
  0
VERTEX
  5
D1
330
AA
100
AcDbEntity
  8
一般
  6
CONTINUOUS
 62
     7
100
AcDbVertex
100
AcDb2dVertex
 10
-40900.0
 20
11956.54008438817
 30
0.0
  0
VERTEX
  5
D2
330
AA
100
AcDbEntity
  8
一般
  6
CONTINUOUS
 62
     7
100
AcDbVertex
100
AcDb2dVertex
 10
-42300.0
 20
14056.54008438817
 30
0.0
  0
VERTEX
  5
D3
330
AA
100
AcDbEntity
  8
一般
  6
CONTINUOUS
 62
     7
100
AcDbVertex
100
AcDb2dVertex
 10
-45300.0
 20
17656.54008438818
 30
0.0
  0
VERTEX
  5
D4
330
AA
100
AcDbEntity
  8
一般
  6
CONTINUOUS
 62
     7
100
AcDbVertex
100
AcDb2dVertex
 10
-48000.0
 20
20256.54008438817
 30
0.0
  0
VERTEX
  5
D5
330
AA
100
AcDbEntity
  8
一般
  6
CONTINUOUS
 62
     7
100
AcDbVertex
100
AcDb2dVertex
 10
-51100.0
 20
22856.54008438817
 30
0.0
  0
VERTEX
  5
D6
330
AA
100
AcDbEntity
  8
一般
  6
CONTINUOUS
 62
     7
100
AcDbVertex
100
AcDb2dVertex
 10
-53900.0
 20
24756.54008438817
 30
0.0
  0
VERTEX
  5
D7
330
AA
100
AcDbEntity
  8
一般
  6
CONTINUOUS
 62
     7
100
AcDbVertex
100
AcDb2dVertex
 10
-55900.0
 20
25956.54008438817
 30
0.0
  0
VERTEX
  5
D8
330
AA
100
AcDbEntity
  8
一般
  6
CONTINUOUS
 62
     7
100
AcDbVertex
100
AcDb2dVertex
 10
-58200.0
 20
27456.54008438817
 30
0.0
  0
VERTEX
  5
D9
330
AA
100
AcDbEntity
  8
一般
  6
CONTINUOUS
 62
     7
100
AcDbVertex
100
AcDb2dVertex
 10
-60800.0
 20
29656.54008438817
 30
0.0
  0
VERTEX
  5
DA
330
AA
100
AcDbEntity
  8
一般
  6
CONTINUOUS
 62
     7
100
AcDbVertex
100
AcDb2dVertex
 10
-62600.0
 20
31356.54008438817
 30
0.0
  0
VERTEX
  5
DB
330
AA
100
AcDbEntity
  8
一般
  6
CONTINUOUS
 62
     7
100
AcDbVertex
100
AcDb2dVertex
 10
-64800.0
 20
33756.54008438817
 30
0.0
  0
VERTEX
  5
DC
330
AA
100
AcDbEntity
  8
一般
  6
CONTINUOUS
 62
     7
100
AcDbVertex
100
AcDb2dVertex
 10
-67000.0
 20
36956.54008438817
 30
0.0
  0
VERTEX
  5
DD
330
AA
100
AcDbEntity
  8
一般
  6
CONTINUOUS
 62
     7
100
AcDbVertex
100
AcDb2dVertex
 10
-69000.0
 20
40756.54008438817
 30
0.0
  0
VERTEX
  5
DE
330
AA
100
AcDbEntity
  8
一般
  6
CONTINUOUS
 62
     7
100
AcDbVertex
100
AcDb2dVertex
 10
-69700.0
 20
43156.54008438817
 30
0.0
  0
VERTEX
  5
DF
330
AA
100
AcDbEntity
  8
一般
  6
CONTINUOUS
 62
     7
100
AcDbVertex
100
AcDb2dVertex
 10
-70100.0
 20
45156.54008438817
 30
0.0
  0
VERTEX
  5
E0
330
AA
100
AcDbEntity
  8
一般
  6
CONTINUOUS
 62
     7
100
AcDbVertex
100
AcDb2dVertex
 10
-70100.0
 20
47656.54008438816
 30
0.0
  0
VERTEX
  5
E1
330
AA
100
AcDbEntity
  8
一般
  6
CONTINUOUS
 62
     7
100
AcDbVertex
100
AcDb2dVertex
 10
-69700.0
 20
50956.54008438816
 30
0.0
  0
VERTEX
  5
E2
330
AA
100
AcDbEntity
  8
一般
  6
CONTINUOUS
 62
     7
100
AcDbVertex
100
AcDb2dVertex
 10
-69100.0
 20
52256.54008438816
 30
0.0
  0
VERTEX
  5
E3
330
AA
100
AcDbEntity
  8
一般
  6
CONTINUOUS
 62
     7
100
AcDbVertex
100
AcDb2dVertex
 10
-68500.0
 20
52556.54008438816
 30
0.0
  0
VERTEX
  5
E4
330
AA
100
AcDbEntity
  8
一般
  6
CONTINUOUS
 62
     7
100
AcDbVertex
100
AcDb2dVertex
 10
-67900.0
 20
52556.54008438816
 30
0.0
  0
VERTEX
  5
E5
330
AA
100
AcDbEntity
  8
一般
  6
CONTINUOUS
 62
     7
100
AcDbVertex
100
AcDb2dVertex
 10
-67300.0
 20
51656.54008438816
 30
0.0
  0
VERTEX
  5
E6
330
AA
100
AcDbEntity
  8
一般
  6
CONTINUOUS
 62
     7
100
AcDbVertex
100
AcDb2dVertex
 10
-66312.82051282052
 20
50274.48880233689
 30
0.0
  0
SEQEND
  5
E7
330
AA
100
AcDbEntity
  8
一般
  6
CONTINUOUS
 62
     7
  0
POLYLINE
  5
E9
330
A
100
AcDbEntity
  8
一般
  6
CONTINUOUS
 62
     7
100
AcDb2dPolyline
 66
     1
 10
0.0
 20
0.0
 30
0.0
 75
     5
  0
VERTEX
  5
EA
330
E9
100
AcDbEntity
  8
一般
  6
CONTINUOUS
 62
     7
100
AcDbVertex
100
AcDb2dVertex
 10
-78276.43097643097
 20
58044.75557260368
 30
0.0
  0
VERTEX
  5
EB
330
E9
100
AcDbEntity
  8
一般
  6
CONTINUOUS
 62
     7
100
AcDbVertex
100
AcDb2dVertex
 10
-76500.0
 20
57156.54008438816
 30
0.0
  0
VERTEX
  5
EC
330
E9
100
AcDbEntity
  8
一般
  6
CONTINUOUS
 62
     7
100
AcDbVertex
100
AcDb2dVertex
 10
-74900.0
 20
56556.54008438816
 30
0.0
  0
VERTEX
  5
ED
330
E9
100
AcDbEntity
  8
一般
  6
CONTINUOUS
 62
     7
100
AcDbVertex
100
AcDb2dVertex
 10
-73300.0
 20
56156.54008438816
 30
0.0
  0
VERTEX
  5
EE
330
E9
100
AcDbEntity
  8
一般
  6
CONTINUOUS
 62
     7
100
AcDbVertex
100
AcDb2dVertex
 10
-72000.0
 20
55856.54008438816
 30
0.0
  0
VERTEX
  5
EF
330
E9
100
AcDbEntity
  8
一般
  6
CONTINUOUS
 62
     7
100
AcDbVertex
100
AcDb2dVertex
 10
-71600.0
 20
55356.54008438816
 30
0.0
  0
VERTEX
  5
F0
330
E9
100
AcDbEntity
  8
一般
  6
CONTINUOUS
 62
     7
100
AcDbVertex
100
AcDb2dVertex
 10
-71300.0
 20
54756.54008438817
 30
0.0
  0
VERTEX
  5
F1
330
E9
100
AcDbEntity
  8
一般
  6
CONTINUOUS
 62
     7
100
AcDbVertex
100
AcDb2dVertex
 10
-71300.0
 20
53856.54008438816
 30
0.0
  0
VERTEX
  5
F2
330
E9
100
AcDbEntity
  8
一般
  6
CONTINUOUS
 62
     7
100
AcDbVertex
100
AcDb2dVertex
 10
-72100.0
 20
50056.54008438816
 30
0.0
  0
VERTEX
  5
F3
330
E9
100
AcDbEntity
  8
一般
  6
CONTINUOUS
 62
     7
100
AcDbVertex
100
AcDb2dVertex
 10
-72400.0
 20
48356.54008438816
 30
0.0
  0
VERTEX
  5
F4
330
E9
100
AcDbEntity
  8
一般
  6
CONTINUOUS
 62
     7
100
AcDbVertex
100
AcDb2dVertex
 10
-72500.0
 20
46056.54008438817
 30
0.0
  0
VERTEX
  5
F5
330
E9
100
AcDbEntity
  8
一般
  6
CONTINUOUS
 62
     7
100
AcDbVertex
100
AcDb2dVertex
 10
-72100.0
 20
42556.54008438817
 30
0.0
  0
VERTEX
  5
F6
330
E9
100
AcDbEntity
  8
一般
  6
CONTINUOUS
 62
     7
100
AcDbVertex
100
AcDb2dVertex
 10
-70800.0
 20
38856.54008438817
 30
0.0
  0
VERTEX
  5
F7
330
E9
100
AcDbEntity
  8
一般
  6
CONTINUOUS
 62
     7
100
AcDbVertex
100
AcDb2dVertex
 10
-68600.0
 20
35056.54008438817
 30
0.0
  0
VERTEX
  5
F8
330
E9
100
AcDbEntity
  8
一般
  6
CONTINUOUS
 62
     7
100
AcDbVertex
100
AcDb2dVertex
 10
-66100.0
 20
31556.54008438817
 30
0.0
  0
VERTEX
  5
F9
330
E9
100
AcDbEntity
  8
一般
  6
CONTINUOUS
 62
     7
100
AcDbVertex
100
AcDb2dVertex
 10
-64200.0
 20
29456.54008438817
 30
0.0
  0
VERTEX
  5
FA
330
E9
100
AcDbEntity
  8
一般
  6
CONTINUOUS
 62
     7
100
AcDbVertex
100
AcDb2dVertex
 10
-60400.0
 20
26056.54008438817
 30
0.0
  0
VERTEX
  5
FB
330
E9
100
AcDbEntity
  8
一般
  6
CONTINUOUS
 62
     7
100
AcDbVertex
100
AcDb2dVertex
 10
-55400.0
 20
22856.54008438817
 30
0.0
  0
VERTEX
  5
FC
330
E9
100
AcDbEntity
  8
一般
  6
CONTINUOUS
 62
     7
100
AcDbVertex
100
AcDb2dVertex
 10
-51400.0
 20
19956.54008438817
 30
0.0
  0
VERTEX
  5
FD
330
E9
100
AcDbEntity
  8
一般
  6
CONTINUOUS
 62
     7
100
AcDbVertex
100
AcDb2dVertex
 10
-48700.0
 20
17556.54008438818
 30
0.0
  0
VERTEX
  5
FE
330
E9
100
AcDbEntity
  8
一般
  6
CONTINUOUS
 62
     7
100
AcDbVertex
100
AcDb2dVertex
 10
-45200.0
 20
13556.54008438817
 30
0.0
  0
VERTEX
  5
FF
330
E9
100
AcDbEntity
  8
一般
  6
CONTINUOUS
 62
     7
100
AcDbVertex
100
AcDb2dVertex
 10
-43100.0
 20
10856.54008438817
 30
0.0
  0
VERTEX
  5
100
330
E9
100
AcDbEntity
  8
一般
  6
CONTINUOUS
 62
     7
100
AcDbVertex
100
AcDb2dVertex
 10
-41100.0
 20
7656.540084388179
 30
0.0
  0
VERTEX
  5
101
330
E9
100
AcDbEntity
  8
一般
  6
CONTINUOUS
 62
     7
100
AcDbVertex
100
AcDb2dVertex
 10
-39100.0
 20
4256.54008438818
 30
0.0
  0
VERTEX
  5
102
330
E9
100
AcDbEntity
  8
一般
  6
CONTINUOUS
 62
     7
100
AcDbVertex
100
AcDb2dVertex
 10
-37800.0
 20
2256.54008438818
 30
0.0
  0
VERTEX
  5
103
330
E9
100
AcDbEntity
  8
一般
  6
CONTINUOUS
 62
     7
100
AcDbVertex
100
AcDb2dVertex
 10
-35300.0
 20
-1043.45991561182
 30
0.0
  0
VERTEX
  5
104
330
E9
100
AcDbEntity
  8
一般
  6
CONTINUOUS
 62
     7
100
AcDbVertex
100
AcDb2dVertex
 10
-32500.0
 20
-4043.45991561182
 30
0.0
  0
VERTEX
  5
105
330
E9
100
AcDbEntity
  8
一般
  6
CONTINUOUS
 62
     7
100
AcDbVertex
100
AcDb2dVertex
 10
-29700.0
 20
-6643.45991561182
 30
0.0
  0
VERTEX
  5
106
330
E9
100
AcDbEntity
  8
一般
  6
CONTINUOUS
 62
     7
100
AcDbVertex
100
AcDb2dVertex
 10
-27600.0
 20
-8443.459915611823
 30
0.0
  0
VERTEX
  5
107
330
E9
100
AcDbEntity
  8
一般
  6
CONTINUOUS
 62
     7
100
AcDbVertex
100
AcDb2dVertex
 10
-24600.0
 20
-10643.45991561182
 30
0.0
  0
VERTEX
  5
108
330
E9
100
AcDbEntity
  8
一般
  6
CONTINUOUS
 62
     7
100
AcDbVertex
100
AcDb2dVertex
 10
-21000.0
 20
-12943.45991561182
 30
0.0
  0
VERTEX
  5
109
330
E9
100
AcDbEntity
  8
一般
  6
CONTINUOUS
 62
     7
100
AcDbVertex
100
AcDb2dVertex
 10
-10100.0
 20
-19943.45991561182
 30
0.0
  0
VERTEX
  5
10A
330
E9
100
AcDbEntity
  8
一般
  6
CONTINUOUS
 62
     7
100
AcDbVertex
100
AcDb2dVertex
 10
-7400.0
 20
-21543.45991561182
 30
0.0
  0
VERTEX
  5
10B
330
E9
100
AcDbEntity
  8
一般
  6
CONTINUOUS
 62
     7
100
AcDbVertex
100
AcDb2dVertex
 10
-4400.0
 20
-23843.45991561182
 30
0.0
  0
VERTEX
  5
10C
330
E9
100
AcDbEntity
  8
一般
  6
CONTINUOUS
 62
     7
100
AcDbVertex
100
AcDb2dVertex
 10
-1800.0
 20
-26043.45991561182
 30
0.0
  0
VERTEX
  5
10D
330
E9
100
AcDbEntity
  8
一般
  6
CONTINUOUS
 62
     7
100
AcDbVertex
100
AcDb2dVertex
 10
600.0
 20
-28643.45991561183
 30
0.0
  0
VERTEX
  5
10E
330
E9
100
AcDbEntity
  8
一般
  6
CONTINUOUS
 62
     7
100
AcDbVertex
100
AcDb2dVertex
 10
3100.0
 20
-31543.45991561183
 30
0.0
  0
VERTEX
  5
10F
330
E9
100
AcDbEntity
  8
一般
  6
CONTINUOUS
 62
     7
100
AcDbVertex
100
AcDb2dVertex
 10
4900.0
 20
-34043.45991561183
 30
0.0
  0
VERTEX
  5
110
330
E9
100
AcDbEntity
  8
一般
  6
CONTINUOUS
 62
     7
100
AcDbVertex
100
AcDb2dVertex
 10
6500.0
 20
-36843.45991561182
 30
0.0
  0
VERTEX
  5
111
330
E9
100
AcDbEntity
  8
一般
  6
CONTINUOUS
 62
     7
100
AcDbVertex
100
AcDb2dVertex
 10
8700.0
 20
-40143.45991561182
 30
0.0
  0
SEQEND
  5
112
330
E9
100
AcDbEntity
  8
一般
  6
CONTINUOUS
 62
     7
  0
POLYLINE
  5
114
330
A
100
AcDbEntity
  8
一般
  6
CONTINUOUS
 62
     7
100
AcDb2dPolyline
 66
     1
 10
0.0
 20
0.0
 30
0.0
 75
     5
  0
VERTEX
  5
115
330
114
100
AcDbEntity
  8
一般
  6
CONTINUOUS
 62
     7
100
AcDbVertex
100
AcDb2dVertex
 10
31000.0
 20
-50143.45991561183
 30
0.0
  0
VERTEX
  5
116
330
114
100
AcDbEntity
  8
一般
  6
CONTINUOUS
 62
     7
100
AcDbVertex
100
AcDb2dVertex
 10
31600.0
 20
-46243.45991561183
 30
0.0
  0
VERTEX
  5
117
330
114
100
AcDbEntity
  8
一般
  6
CONTINUOUS
 62
     7
100
AcDbVertex
100
AcDb2dVertex
 10
31800.0
 20
-45443.45991561183
 30
0.0
  0
VERTEX
  5
118
330
114
100
AcDbEntity
  8
一般
  6
CONTINUOUS
 62
     7
100
AcDbVertex
100
AcDb2dVertex
 10
32400.0
 20
-44943.45991561182
 30
0.0
  0
VERTEX
  5
119
330
114
100
AcDbEntity
  8
一般
  6
CONTINUOUS
 62
     7
100
AcDbVertex
100
AcDb2dVertex
 10
32900.0
 20
-44843.45991561182
 30
0.0
  0
VERTEX
  5
11A
330
114
100
AcDbEntity
  8
一般
  6
CONTINUOUS
 62
     7
100
AcDbVertex
100
AcDb2dVertex
 10
35900.0
 20
-45443.45991561183
 30
0.0
  0
VERTEX
  5
11B
330
114
100
AcDbEntity
  8
一般
  6
CONTINUOUS
 62
     7
100
AcDbVertex
100
AcDb2dVertex
 10
41800.0
 20
-46743.45991561184
 30
0.0
  0
VERTEX
  5
11C
330
114
100
AcDbEntity
  8
一般
  6
CONTINUOUS
 62
     7
100
AcDbVertex
100
AcDb2dVertex
 10
45700.0
 20
-47043.45991561183
 30
0.0
  0
VERTEX
  5
11D
330
114
100
AcDbEntity
  8
一般
  6
CONTINUOUS
 62
     7
100
AcDbVertex
100
AcDb2dVertex
 10
50000.0
 20
-46943.45991561183
 30
0.0
  0
VERTEX
  5
11E
330
114
100
AcDbEntity
  8
一般
  6
CONTINUOUS
 62
     7
100
AcDbVertex
100
AcDb2dVertex
 10
54300.0
 20
-46343.45991561183
 30
0.0
  0
VERTEX
  5
11F
330
114
100
AcDbEntity
  8
一般
  6
CONTINUOUS
 62
     7
100
AcDbVertex
100
AcDb2dVertex
 10
61800.0
 20
-44443.45991561182
 30
0.0
  0
VERTEX
  5
120
330
114
100
AcDbEntity
  8
一般
  6
CONTINUOUS
 62
     7
100
AcDbVertex
100
AcDb2dVertex
 10
66800.0
 20
-43143.45991561182
 30
0.0
  0
VERTEX
  5
121
330
114
100
AcDbEntity
  8
一般
  6
CONTINUOUS
 62
     7
100
AcDbVertex
100
AcDb2dVertex
 10
68200.0
 20
-42743.45991561182
 30
0.0
  0
VERTEX
  5
122
330
114
100
AcDbEntity
  8
一般
  6
CONTINUOUS
 62
     7
100
AcDbVertex
100
AcDb2dVertex
 10
70600.0
 20
-42743.45991561182
 30
0.0
  0
VERTEX
  5
123
330
114
100
AcDbEntity
  8
一般
  6
CONTINUOUS
 62
     7
100
AcDbVertex
100
AcDb2dVertex
 10
72900.0
 20
-43343.45991561183
 30
0.0
  0
VERTEX
  5
124
330
114
100
AcDbEntity
  8
一般
  6
CONTINUOUS
 62
     7
100
AcDbVertex
100
AcDb2dVertex
 10
75200.0
 20
-44943.45991561182
 30
0.0
  0
VERTEX
  5
125
330
114
100
AcDbEntity
  8
一般
  6
CONTINUOUS
 62
     7
100
AcDbVertex
100
AcDb2dVertex
 10
76500.0
 20
-46943.45991561183
 30
0.0
  0
VERTEX
  5
126
330
114
100
AcDbEntity
  8
一般
  6
CONTINUOUS
 62
     7
100
AcDbVertex
100
AcDb2dVertex
 10
77200.0
 20
-48943.45991561183
 30
0.0
  0
VERTEX
  5
127
330
114
100
AcDbEntity
  8
一般
  6
CONTINUOUS
 62
     7
100
AcDbVertex
100
AcDb2dVertex
 10
77400.0
 20
-51043.45991561183
 30
0.0
  0
VERTEX
  5
128
330
114
100
AcDbEntity
  8
一般
  6
CONTINUOUS
 62
     7
100
AcDbVertex
100
AcDb2dVertex
 10
77000.0
 20
-53043.45991561183
 30
0.0
  0
VERTEX
  5
129
330
114
100
AcDbEntity
  8
一般
  6
CONTINUOUS
 62
     7
100
AcDbVertex
100
AcDb2dVertex
 10
76300.0
 20
-55043.45991561184
 30
0.0
  0
SEQEND
  5
12A
330
114
100
AcDbEntity
  8
一般
  6
CONTINUOUS
 62
     7
  0
POLYLINE
  5
12C
330
A
100
AcDbEntity
  8
一般
  6
CONTINUOUS
 62
     7
100
AcDb2dPolyline
 66
     1
 10
0.0
 20
0.0
 30
0.0
 75
     5
  0
VERTEX
  5
12D
330
12C
100
AcDbEntity
  8
一般
  6
CONTINUOUS
 62
     7
100
AcDbVertex
100
AcDb2dVertex
 10
18200.0
 20
71856.54008438817
 30
0.0
  0
VERTEX
  5
12E
330
12C
100
AcDbEntity
  8
一般
  6
CONTINUOUS
 62
     7
100
AcDbVertex
100
AcDb2dVertex
 10
18800.0
 20
71456.54008438817
 30
0.0
  0
VERTEX
  5
12F
330
12C
100
AcDbEntity
  8
一般
  6
CONTINUOUS
 62
     7
100
AcDbVertex
100
AcDb2dVertex
 10
19300.0
 20
71456.54008438817
 30
0.0
  0
VERTEX
  5
130
330
12C
100
AcDbEntity
  8
一般
  6
CONTINUOUS
 62
     7
100
AcDbVertex
100
AcDb2dVertex
 10
19950.0
 20
71706.54008438816
 30
0.0
  0
VERTEX
  5
131
330
12C
100
AcDbEntity
  8
一般
  6
CONTINUOUS
 62
     7
100
AcDbVertex
100
AcDb2dVertex
 10
21950.0
 20
73606.54008438819
 30
0.0
  0
VERTEX
  5
132
330
12C
100
AcDbEntity
  8
一般
  6
CONTINUOUS
 62
     7
100
AcDbVertex
100
AcDb2dVertex
 10
23700.0
 20
75456.5400843882
 30
0.0
  0
VERTEX
  5
133
330
12C
100
AcDbEntity
  8
一般
  6
CONTINUOUS
 62
     7
100
AcDbVertex
100
AcDb2dVertex
 10
24600.0
 20
76506.54008438819
 30
0.0
  0
VERTEX
  5
134
330
12C
100
AcDbEntity
  8
一般
  6
CONTINUOUS
 62
     7
100
AcDbVertex
100
AcDb2dVertex
 10
25250.0
 20
77906.54008438819
 30
0.0
  0
VERTEX
  5
135
330
12C
100
AcDbEntity
  8
一般
  6
CONTINUOUS
 62
     7
100
AcDbVertex
100
AcDb2dVertex
 10
25650.0
 20
78756.5400843882
 30
0.0
  0
VERTEX
  5
136
330
12C
100
AcDbEntity
  8
一般
  6
CONTINUOUS
 62
     7
100
AcDbVertex
100
AcDb2dVertex
 10
26050.0
 20
80506.54008438819
 30
0.0
  0
VERTEX
  5
137
330
12C
100
AcDbEntity
  8
一般
  6
CONTINUOUS
 62
     7
100
AcDbVertex
100
AcDb2dVertex
 10
26150.0
 20
82656.54008438819
 30
0.0
  0
VERTEX
  5
138
330
12C
100
AcDbEntity
  8
一般
  6
CONTINUOUS
 62
     7
100
AcDbVertex
100
AcDb2dVertex
 10
26150.0
 20
84306.54008438819
 30
0.0
  0
VERTEX
  5
139
330
12C
100
AcDbEntity
  8
一般
  6
CONTINUOUS
 62
     7
100
AcDbVertex
100
AcDb2dVertex
 10
24400.0
 20
89506.54008438817
 30
0.0
  0
VERTEX
  5
13A
330
12C
100
AcDbEntity
  8
一般
  6
CONTINUOUS
 62
     7
100
AcDbVertex
100
AcDb2dVertex
 10
24050.0
 20
90506.54008438817
 30
0.0
  0
VERTEX
  5
13B
330
12C
100
AcDbEntity
  8
一般
  6
CONTINUOUS
 62
     7
100
AcDbVertex
100
AcDb2dVertex
 10
24050.0
 20
91556.54008438817
 30
0.0
  0
VERTEX
  5
13C
330
12C
100
AcDbEntity
  8
一般
  6
CONTINUOUS
 62
     7
100
AcDbVertex
100
AcDb2dVertex
 10
24850.0
 20
92656.54008438817
 30
0.0
  0
VERTEX
  5
13D
330
12C
100
AcDbEntity
  8
一般
  6
CONTINUOUS
 62
     7
100
AcDbVertex
100
AcDb2dVertex
 10
28050.0
 20
96156.54008438816
 30
0.0
  0
VERTEX
  5
13E
330
12C
100
AcDbEntity
  8
一般
  6
CONTINUOUS
 62
     7
100
AcDbVertex
100
AcDb2dVertex
 10
28350.0
 20
96556.54008438817
 30
0.0
  0
VERTEX
  5
13F
330
12C
100
AcDbEntity
  8
一般
  6
CONTINUOUS
 62
     7
100
AcDbVertex
100
AcDb2dVertex
 10
28350.0
 20
97056.54008438816
 30
0.0
  0
VERTEX
  5
140
330
12C
100
AcDbEntity
  8
一般
  6
CONTINUOUS
 62
     7
100
AcDbVertex
100
AcDb2dVertex
 10
27697.00303587462
 20
98595.74721411227
 30
0.0
  0
SEQEND
  5
141
330
12C
100
AcDbEntity
  8
一般
  6
CONTINUOUS
 62
     7
  0
POLYLINE
  5
143
330
A
100
AcDbEntity
  8
一般
  6
CONTINUOUS
 62
     7
100
AcDb2dPolyline
 66
     1
 10
0.0
 20
0.0
 30
0.0
 75
     5
  0
VERTEX
  5
144
330
143
100
AcDbEntity
  8
一般
  6
CONTINUOUS
 62
     7
100
AcDbVertex
100
AcDb2dVertex
 10
30719.86074847693
 20
98617.16671624195
 30
0.0
  0
VERTEX
  5
145
330
143
100
AcDbEntity
  8
一般
  6
CONTINUOUS
 62
     7
100
AcDbVertex
100
AcDb2dVertex
 10
31000.0
 20
97356.54008438816
 30
0.0
  0
VERTEX
  5
146
330
143
100
AcDbEntity
  8
一般
  6
CONTINUOUS
 62
     7
100
AcDbVertex
100
AcDb2dVertex
 10
31000.0
 20
96706.54008438816
 30
0.0
  0
VERTEX
  5
147
330
143
100
AcDbEntity
  8
一般
  6
CONTINUOUS
 62
     7
100
AcDbVertex
100
AcDb2dVertex
 10
30650.0
 20
96006.54008438816
 30
0.0
  0
VERTEX
  5
148
330
143
100
AcDbEntity
  8
一般
  6
CONTINUOUS
 62
     7
100
AcDbVertex
100
AcDb2dVertex
 10
28750.0
 20
93606.54008438816
 30
0.0
  0
VERTEX
  5
149
330
143
100
AcDbEntity
  8
一般
  6
CONTINUOUS
 62
     7
100
AcDbVertex
100
AcDb2dVertex
 10
27200.0
 20
91356.54008438816
 30
0.0
  0
VERTEX
  5
14A
330
143
100
AcDbEntity
  8
一般
  6
CONTINUOUS
 62
     7
100
AcDbVertex
100
AcDb2dVertex
 10
26950.0
 20
90556.54008438816
 30
0.0
  0
VERTEX
  5
14B
330
143
100
AcDbEntity
  8
一般
  6
CONTINUOUS
 62
     7
100
AcDbVertex
100
AcDb2dVertex
 10
26950.0
 20
89806.54008438818
 30
0.0
  0
VERTEX
  5
14C
330
143
100
AcDbEntity
  8
一般
  6
CONTINUOUS
 62
     7
100
AcDbVertex
100
AcDb2dVertex
 10
27500.0
 20
88356.54008438817
 30
0.0
  0
VERTEX
  5
14D
330
143
100
AcDbEntity
  8
一般
  6
CONTINUOUS
 62
     7
100
AcDbVertex
100
AcDb2dVertex
 10
28400.0
 20
85506.54008438819
 30
0.0
  0
VERTEX
  5
14E
330
143
100
AcDbEntity
  8
一般
  6
CONTINUOUS
 62
     7
100
AcDbVertex
100
AcDb2dVertex
 10
28550.0
 20
84206.5400843882
 30
0.0
  0
VERTEX
  5
14F
330
143
100
AcDbEntity
  8
一般
  6
CONTINUOUS
 62
     7
100
AcDbVertex
100
AcDb2dVertex
 10
28650.0
 20
82606.5400843882
 30
0.0
  0
VERTEX
  5
150
330
143
100
AcDbEntity
  8
一般
  6
CONTINUOUS
 62
     7
100
AcDbVertex
100
AcDb2dVertex
 10
28650.0
 20
81106.54008438819
 30
0.0
  0
VERTEX
  5
151
330
143
100
AcDbEntity
  8
一般
  6
CONTINUOUS
 62
     7
100
AcDbVertex
100
AcDb2dVertex
 10
28500.0
 20
79706.54008438819
 30
0.0
  0
VERTEX
  5
152
330
143
100
AcDbEntity
  8
一般
  6
CONTINUOUS
 62
     7
100
AcDbVertex
100
AcDb2dVertex
 10
28100.0
 20
78106.54008438819
 30
0.0
  0
VERTEX
  5
153
330
143
100
AcDbEntity
  8
一般
  6
CONTINUOUS
 62
     7
100
AcDbVertex
100
AcDb2dVertex
 10
27800.0
 20
76706.5400843882
 30
0.0
  0
VERTEX
  5
154
330
143
100
AcDbEntity
  8
一般
  6
CONTINUOUS
 62
     7
100
AcDbVertex
100
AcDb2dVertex
 10
27250.0
 20
75406.54008438819
 30
0.0
  0
VERTEX
  5
155
330
143
100
AcDbEntity
  8
一般
  6
CONTINUOUS
 62
     7
100
AcDbVertex
100
AcDb2dVertex
 10
26600.0
 20
74356.54008438819
 30
0.0
  0
VERTEX
  5
156
330
143
100
AcDbEntity
  8
一般
  6
CONTINUOUS
 62
     7
100
AcDbVertex
100
AcDb2dVertex
 10
24700.0
 20
72506.54008438819
 30
0.0
  0
VERTEX
  5
157
330
143
100
AcDbEntity
  8
一般
  6
CONTINUOUS
 62
     7
100
AcDbVertex
100
AcDb2dVertex
 10
21950.0
 20
70056.54008438816
 30
0.0
  0
VERTEX
  5
158
330
143
100
AcDbEntity
  8
一般
  6
CONTINUOUS
 62
     7
100
AcDbVertex
100
AcDb2dVertex
 10
21700.0
 20
69456.54008438816
 30
0.0
  0
VERTEX
  5
159
330
143
100
AcDbEntity
  8
一般
  6
CONTINUOUS
 62
     7
100
AcDbVertex
100
AcDb2dVertex
 10
21600.0
 20
68806.54008438816
 30
0.0
  0
VERTEX
  5
15A
330
143
100
AcDbEntity
  8
一般
  6
CONTINUOUS
 62
     7
100
AcDbVertex
100
AcDb2dVertex
 10
21600.0
 20
68206.54008438816
 30
0.0
  0
VERTEX
  5
15B
330
143
100
AcDbEntity
  8
一般
  6
CONTINUOUS
 62
     7
100
AcDbVertex
100
AcDb2dVertex
 10
23400.0
 20
66556.54008438816
 30
0.0
  0
VERTEX
  5
15C
330
143
100
AcDbEntity
  8
一般
  6
CONTINUOUS
 62
     7
100
AcDbVertex
100
AcDb2dVertex
 10
25650.0
 20
64506.54008438816
 30
0.0
  0
VERTEX
  5
15D
330
143
100
AcDbEntity
  8
一般
  6
CONTINUOUS
 62
     7
100
AcDbVertex
100
AcDb2dVertex
 10
27850.0
 20
62956.54008438816
 30
0.0
  0
VERTEX
  5
15E
330
143
100
AcDbEntity
  8
一般
  6
CONTINUOUS
 62
     7
100
AcDbVertex
100
AcDb2dVertex
 10
30000.0
 20
61606.54008438816
 30
0.0
  0
VERTEX
  5
15F
330
143
100
AcDbEntity
  8
一般
  6
CONTINUOUS
 62
     7
100
AcDbVertex
100
AcDb2dVertex
 10
32550.0
 20
60306.54008438816
 30
0.0
  0
VERTEX
  5
160
330
143
100
AcDbEntity
  8
一般
  6
CONTINUOUS
 62
     7
100
AcDbVertex
100
AcDb2dVertex
 10
35400.0
 20
59056.54008438816
 30
0.0
  0
VERTEX
  5
161
330
143
100
AcDbEntity
  8
一般
  6
CONTINUOUS
 62
     7
100
AcDbVertex
100
AcDb2dVertex
 10
37100.0
 20
58406.54008438816
 30
0.0
  0
VERTEX
  5
162
330
143
100
AcDbEntity
  8
一般
  6
CONTINUOUS
 62
     7
100
AcDbVertex
100
AcDb2dVertex
 10
39000.0
 20
57556.54008438816
 30
0.0
  0
VERTEX
  5
163
330
143
100
AcDbEntity
  8
一般
  6
CONTINUOUS
 62
     7
100
AcDbVertex
100
AcDb2dVertex
 10
40750.0
 20
56606.54008438816
 30
0.0
  0
VERTEX
  5
164
330
143
100
AcDbEntity
  8
一般
  6
CONTINUOUS
 62
     7
100
AcDbVertex
100
AcDb2dVertex
 10
42450.0
 20
55356.54008438816
 30
0.0
  0
VERTEX
  5
165
330
143
100
AcDbEntity
  8
一般
  6
CONTINUOUS
 62
     7
100
AcDbVertex
100
AcDb2dVertex
 10
44100.0
 20
53856.54008438816
 30
0.0
  0
VERTEX
  5
166
330
143
100
AcDbEntity
  8
一般
  6
CONTINUOUS
 62
     7
100
AcDbVertex
100
AcDb2dVertex
 10
45600.0
 20
51856.54008438817
 30
0.0
  0
VERTEX
  5
167
330
143
100
AcDbEntity
  8
一般
  6
CONTINUOUS
 62
     7
100
AcDbVertex
100
AcDb2dVertex
 10
47250.0
 20
49856.54008438817
 30
0.0
  0
VERTEX
  5
168
330
143
100
AcDbEntity
  8
一般
  6
CONTINUOUS
 62
     7
100
AcDbVertex
100
AcDb2dVertex
 10
49050.0
 20
47256.54008438816
 30
0.0
  0
VERTEX
  5
169
330
143
100
AcDbEntity
  8
一般
  6
CONTINUOUS
 62
     7
100
AcDbVertex
100
AcDb2dVertex
 10
50650.0
 20
44756.54008438817
 30
0.0
  0
VERTEX
  5
16A
330
143
100
AcDbEntity
  8
一般
  6
CONTINUOUS
 62
     7
100
AcDbVertex
100
AcDb2dVertex
 10
52850.0
 20
40756.54008438817
 30
0.0
  0
VERTEX
  5
16B
330
143
100
AcDbEntity
  8
一般
  6
CONTINUOUS
 62
     7
100
AcDbVertex
100
AcDb2dVertex
 10
54450.0
 20
37156.54008438817
 30
0.0
  0
VERTEX
  5
16C
330
143
100
AcDbEntity
  8
一般
  6
CONTINUOUS
 62
     7
100
AcDbVertex
100
AcDb2dVertex
 10
56350.0
 20
31806.54008438817
 30
0.0
  0
VERTEX
  5
16D
330
143
100
AcDbEntity
  8
一般
  6
CONTINUOUS
 62
     7
100
AcDbVertex
100
AcDb2dVertex
 10
57500.0
 20
27606.54008438817
 30
0.0
  0
VERTEX
  5
16E
330
143
100
AcDbEntity
  8
一般
  6
CONTINUOUS
 62
     7
100
AcDbVertex
100
AcDb2dVertex
 10
58400.0
 20
23556.54008438817
 30
0.0
  0
VERTEX
  5
16F
330
143
100
AcDbEntity
  8
一般
  6
CONTINUOUS
 62
     7
100
AcDbVertex
100
AcDb2dVertex
 10
58900.0
 20
20206.54008438817
 30
0.0
  0
VERTEX
  5
170
330
143
100
AcDbEntity
  8
一般
  6
CONTINUOUS
 62
     7
100
AcDbVertex
100
AcDb2dVertex
 10
59200.0
 20
16006.54008438817
 30
0.0
  0
VERTEX
  5
171
330
143
100
AcDbEntity
  8
一般
  6
CONTINUOUS
 62
     7
100
AcDbVertex
100
AcDb2dVertex
 10
59300.0
 20
6906.54008438818
 30
0.0
  0
VERTEX
  5
172
330
143
100
AcDbEntity
  8
一般
  6
CONTINUOUS
 62
     7
100
AcDbVertex
100
AcDb2dVertex
 10
59400.0
 20
4306.54008438818
 30
0.0
  0
VERTEX
  5
173
330
143
100
AcDbEntity
  8
一般
  6
CONTINUOUS
 62
     7
100
AcDbVertex
100
AcDb2dVertex
 10
59750.0
 20
1056.540084388179
 30
0.0
  0
VERTEX
  5
174
330
143
100
AcDbEntity
  8
一般
  6
CONTINUOUS
 62
     7
100
AcDbVertex
100
AcDb2dVertex
 10
60500.0
 20
-2693.45991561182
 30
0.0
  0
VERTEX
  5
175
330
143
100
AcDbEntity
  8
一般
  6
CONTINUOUS
 62
     7
100
AcDbVertex
100
AcDb2dVertex
 10
61350.0
 20
-5893.459915611821
 30
0.0
  0
VERTEX
  5
176
330
143
100
AcDbEntity
  8
一般
  6
CONTINUOUS
 62
     7
100
AcDbVertex
100
AcDb2dVertex
 10
63100.0
 20
-10493.45991561182
 30
0.0
  0
VERTEX
  5
177
330
143
100
AcDbEntity
  8
一般
  6
CONTINUOUS
 62
     7
100
AcDbVertex
100
AcDb2dVertex
 10
64550.0
 20
-13743.45991561182
 30
0.0
  0
VERTEX
  5
178
330
143
100
AcDbEntity
  8
一般
  6
CONTINUOUS
 62
     7
100
AcDbVertex
100
AcDb2dVertex
 10
68050.0
 20
-20093.45991561182
 30
0.0
  0
VERTEX
  5
179
330
143
100
AcDbEntity
  8
一般
  6
CONTINUOUS
 62
     7
100
AcDbVertex
100
AcDb2dVertex
 10
71700.0
 20
-26743.45991561182
 30
0.0
  0
VERTEX
  5
17A
330
143
100
AcDbEntity
  8
一般
  6
CONTINUOUS
 62
     7
100
AcDbVertex
100
AcDb2dVertex
 10
74650.0
 20
-32043.45991561182
 30
0.0
  0
VERTEX
  5
17B
330
143
100
AcDbEntity
  8
一般
  6
CONTINUOUS
 62
     7
100
AcDbVertex
100
AcDb2dVertex
 10
77000.0
 20
-36193.45991561182
 30
0.0
  0
VERTEX
  5
17C
330
143
100
AcDbEntity
  8
一般
  6
CONTINUOUS
 62
     7
100
AcDbVertex
100
AcDb2dVertex
 10
78300.0
 20
-39043.45991561183
 30
0.0
  0
VERTEX
  5
17D
330
143
100
AcDbEntity
  8
一般
  6
CONTINUOUS
 62
     7
100
AcDbVertex
100
AcDb2dVertex
 10
79150.0
 20
-40693.45991561182
 30
0.0
  0
VERTEX
  5
17E
330
143
100
AcDbEntity
  8
一般
  6
CONTINUOUS
 62
     7
100
AcDbVertex
100
AcDb2dVertex
 10
79950.0
 20
-42393.45991561182
 30
0.0
  0
VERTEX
  5
17F
330
143
100
AcDbEntity
  8
一般
  6
CONTINUOUS
 62
     7
100
AcDbVertex
100
AcDb2dVertex
 10
80650.0
 20
-44593.45991561183
 30
0.0
  0
VERTEX
  5
180
330
143
100
AcDbEntity
  8
一般
  6
CONTINUOUS
 62
     7
100
AcDbVertex
100
AcDb2dVertex
 10
81050.0
 20
-46593.45991561183
 30
0.0
  0
VERTEX
  5
181
330
143
100
AcDbEntity
  8
一般
  6
CONTINUOUS
 62
     7
100
AcDbVertex
100
AcDb2dVertex
 10
81150.0
 20
-48443.45991561183
 30
0.0
  0
VERTEX
  5
182
330
143
100
AcDbEntity
  8
一般
  6
CONTINUOUS
 62
     7
100
AcDbVertex
100
AcDb2dVertex
 10
81200.0
 20
-50593.45991561183
 30
0.0
  0
VERTEX
  5
183
330
143
100
AcDbEntity
  8
一般
  6
CONTINUOUS
 62
     7
100
AcDbVertex
100
AcDb2dVertex
 10
81950.0
 20
-51293.45991561184
 30
0.0
  0
VERTEX
  5
184
330
143
100
AcDbEntity
  8
一般
  6
CONTINUOUS
 62
     7
100
AcDbVertex
100
AcDb2dVertex
 10
89750.0
 20
-51193.45991561183
 30
0.0
  0
SEQEND
  5
185
330
143
100
AcDbEntity
  8
一般
  6
CONTINUOUS
 62
     7
  0
POLYLINE
  5
187
330
A
100
AcDbEntity
  8
一般
  6
CONTINUOUS
 62
     7
100
AcDb2dPolyline
 66
     1
 10
0.0
 20
0.0
 30
0.0
 75
     5
  0
VERTEX
  5
188
330
187
100
AcDbEntity
  8
一般
  6
CONTINUOUS
 62
     7
100
AcDbVertex
100
AcDb2dVertex
 10
79550.0
 20
-56543.45991561183
 30
0.0
  0
VERTEX
  5
189
330
187
100
AcDbEntity
  8
一般
  6
CONTINUOUS
 62
     7
100
AcDbVertex
100
AcDb2dVertex
 10
79750.0
 20
-55843.45991561184
 30
0.0
  0
VERTEX
  5
18A
330
187
100
AcDbEntity
  8
一般
  6
CONTINUOUS
 62
     7
100
AcDbVertex
100
AcDb2dVertex
 10
80000.0
 20
-55543.45991561183
 30
0.0
  0
VERTEX
  5
18B
330
187
100
AcDbEntity
  8
一般
  6
CONTINUOUS
 62
     7
100
AcDbVertex
100
AcDb2dVertex
 10
80300.0
 20
-55343.45991561183
 30
0.0
  0
VERTEX
  5
18C
330
187
100
AcDbEntity
  8
一般
  6
CONTINUOUS
 62
     7
100
AcDbVertex
100
AcDb2dVertex
 10
80550.0
 20
-55243.45991561183
 30
0.0
  0
VERTEX
  5
18D
330
187
100
AcDbEntity
  8
一般
  6
CONTINUOUS
 62
     7
100
AcDbVertex
100
AcDb2dVertex
 10
87550.0
 20
-55193.45991561183
 30
0.0
  0
VERTEX
  5
18E
330
187
100
AcDbEntity
  8
一般
  6
CONTINUOUS
 62
     7
100
AcDbVertex
100
AcDb2dVertex
 10
87600.0
 20
-59593.45991561184
 30
0.0
  0
VERTEX
  5
18F
330
187
100
AcDbEntity
  8
一般
  6
CONTINUOUS
 62
     7
100
AcDbVertex
100
AcDb2dVertex
 10
90050.0
 20
-59593.45991561184
 30
0.0
  0
SEQEND
  5
190
330
187
100
AcDbEntity
  8
一般
  6
CONTINUOUS
 62
     7
  0
LINE
  5
192
330
A
100
AcDbEntity
  8
一般
  6
CONTINUOUS
 62
     7
100
AcDbLine
 10
-92500.0
 20
97456.54008438817
 30
0.0
 11
34900.0
 21
98656.54008438816
 31
0.0
  0
POLYLINE
  5
193
330
A
100
AcDbEntity
  8
一般
  6
CONTINUOUS
 62
     7
100
AcDb2dPolyline
 66
     1
 10
0.0
 20
0.0
 30
0.0
 75
     5
  0
VERTEX
  5
194
330
193
100
AcDbEntity
  8
一般
  6
CONTINUOUS
 62
     7
100
AcDbVertex
100
AcDb2dVertex
 10
34900.0
 20
98656.54008438816
 30
0.0
  0
VERTEX
  5
195
330
193
100
AcDbEntity
  8
一般
  6
CONTINUOUS
 62
     7
100
AcDbVertex
100
AcDb2dVertex
 10
36450.0
 20
98706.54008438817
 30
0.0
  0
VERTEX
  5
196
330
193
100
AcDbEntity
  8
一般
  6
CONTINUOUS
 62
     7
100
AcDbVertex
100
AcDb2dVertex
 10
37700.0
 20
98406.54008438816
 30
0.0
  0
VERTEX
  5
197
330
193
100
AcDbEntity
  8
一般
  6
CONTINUOUS
 62
     7
100
AcDbVertex
100
AcDb2dVertex
 10
39650.0
 20
97556.54008438817
 30
0.0
  0
VERTEX
  5
198
330
193
100
AcDbEntity
  8
一般
  6
CONTINUOUS
 62
     7
100
AcDbVertex
100
AcDb2dVertex
 10
41250.0
 20
96506.54008438817
 30
0.0
  0
VERTEX
  5
199
330
193
100
AcDbEntity
  8
一般
  6
CONTINUOUS
 62
     7
100
AcDbVertex
100
AcDb2dVertex
 10
42500.0
 20
95306.54008438817
 30
0.0
  0
VERTEX
  5
19A
330
193
100
AcDbEntity
  8
一般
  6
CONTINUOUS
 62
     7
100
AcDbVertex
100
AcDb2dVertex
 10
43400.0
 20
93956.54008438816
 30
0.0
  0
VERTEX
  5
19B
330
193
100
AcDbEntity
  8
一般
  6
CONTINUOUS
 62
     7
100
AcDbVertex
100
AcDb2dVertex
 10
51700.0
 20
76156.54008438819
 30
0.0
  0
VERTEX
  5
19C
330
193
100
AcDbEntity
  8
一般
  6
CONTINUOUS
 62
     7
100
AcDbVertex
100
AcDb2dVertex
 10
55900.0
 20
66806.54008438816
 30
0.0
  0
VERTEX
  5
19D
330
193
100
AcDbEntity
  8
一般
  6
CONTINUOUS
 62
     7
100
AcDbVertex
100
AcDb2dVertex
 10
57200.0
 20
63456.54008438816
 30
0.0
  0
VERTEX
  5
19E
330
193
100
AcDbEntity
  8
一般
  6
CONTINUOUS
 62
     7
100
AcDbVertex
100
AcDb2dVertex
 10
58550.0
 20
59206.54008438816
 30
0.0
  0
VERTEX
  5
19F
330
193
100
AcDbEntity
  8
一般
  6
CONTINUOUS
 62
     7
100
AcDbVertex
100
AcDb2dVertex
 10
59200.0
 20
57056.54008438816
 30
0.0
  0
VERTEX
  5
1A0
330
193
100
AcDbEntity
  8
一般
  6
CONTINUOUS
 62
     7
100
AcDbVertex
100
AcDb2dVertex
 10
60400.0
 20
52806.54008438816
 30
0.0
  0
VERTEX
  5
1A1
330
193
100
AcDbEntity
  8
一般
  6
CONTINUOUS
 62
     7
100
AcDbVertex
100
AcDb2dVertex
 10
62800.0
 20
39606.54008438817
 30
0.0
  0
VERTEX
  5
1A2
330
193
100
AcDbEntity
  8
一般
  6
CONTINUOUS
 62
     7
100
AcDbVertex
100
AcDb2dVertex
 10
63900.0
 20
33456.54008438817
 30
0.0
  0
VERTEX
  5
1A3
330
193
100
AcDbEntity
  8
一般
  6
CONTINUOUS
 62
     7
100
AcDbVertex
100
AcDb2dVertex
 10
65350.0
 20
25556.54008438817
 30
0.0
  0
VERTEX
  5
1A4
330
193
100
AcDbEntity
  8
一般
  6
CONTINUOUS
 62
     7
100
AcDbVertex
100
AcDb2dVertex
 10
66550.0
 20
19656.54008438817
 30
0.0
  0
VERTEX
  5
1A5
330
193
100
AcDbEntity
  8
一般
  6
CONTINUOUS
 62
     7
100
AcDbVertex
100
AcDb2dVertex
 10
68300.0
 20
9956.54008438818
 30
0.0
  0
VERTEX
  5
1A6
330
193
100
AcDbEntity
  8
一般
  6
CONTINUOUS
 62
     7
100
AcDbVertex
100
AcDb2dVertex
 10
70250.0
 20
-693.45991561182
 30
0.0
  0
VERTEX
  5
1A7
330
193
100
AcDbEntity
  8
一般
  6
CONTINUOUS
 62
     7
100
AcDbVertex
100
AcDb2dVertex
 10
71500.0
 20
-7743.459915611821
 30
0.0
  0
VERTEX
  5
1A8
330
193
100
AcDbEntity
  8
一般
  6
CONTINUOUS
 62
     7
100
AcDbVertex
100
AcDb2dVertex
 10
71850.0
 20
-9393.459915611821
 30
0.0
  0
VERTEX
  5
1A9
330
193
100
AcDbEntity
  8
一般
  6
CONTINUOUS
 62
     7
100
AcDbVertex
100
AcDb2dVertex
 10
72600.0
 20
-11693.45991561182
 30
0.0
  0
VERTEX
  5
1AA
330
193
100
AcDbEntity
  8
一般
  6
CONTINUOUS
 62
     7
100
AcDbVertex
100
AcDb2dVertex
 10
73250.0
 20
-13543.45991561182
 30
0.0
  0
VERTEX
  5
1AB
330
193
100
AcDbEntity
  8
一般
  6
CONTINUOUS
 62
     7
100
AcDbVertex
100
AcDb2dVertex
 10
75700.0
 20
-17243.45991561182
 30
0.0
  0
VERTEX
  5
1AC
330
193
100
AcDbEntity
  8
一般
  6
CONTINUOUS
 62
     7
100
AcDbVertex
100
AcDb2dVertex
 10
78850.0
 20
-21193.45991561182
 30
0.0
  0
VERTEX
  5
1AD
330
193
100
AcDbEntity
  8
一般
  6
CONTINUOUS
 62
     7
100
AcDbVertex
100
AcDb2dVertex
 10
83600.0
 20
-26093.45991561182
 30
0.0
  0
VERTEX
  5
1AE
330
193
100
AcDbEntity
  8
一般
  6
CONTINUOUS
 62
     7
100
AcDbVertex
100
AcDb2dVertex
 10
84800.0
 20
-27343.45991561182
 30
0.0
  0
VERTEX
  5
1AF
330
193
100
AcDbEntity
  8
一般
  6
CONTINUOUS
 62
     7
100
AcDbVertex
100
AcDb2dVertex
 10
86300.0
 20
-29093.45991561183
 30
0.0
  0
VERTEX
  5
1B0
330
193
100
AcDbEntity
  8
一般
  6
CONTINUOUS
 62
     7
100
AcDbVertex
100
AcDb2dVertex
 10
87650.0
 20
-30993.45991561182
 30
0.0
  0
VERTEX
  5
1B1
330
193
100
AcDbEntity
  8
一般
  6
CONTINUOUS
 62
     7
100
AcDbVertex
100
AcDb2dVertex
 10
88650.0
 20
-33143.45991561182
 30
0.0
  0
VERTEX
  5
1B2
330
193
100
AcDbEntity
  8
一般
  6
CONTINUOUS
 62
     7
100
AcDbVertex
100
AcDb2dVertex
 10
89400.0
 20
-35243.45991561182
 30
0.0
  0
VERTEX
  5
1B3
330
193
100
AcDbEntity
  8
一般
  6
CONTINUOUS
 62
     7
100
AcDbVertex
100
AcDb2dVertex
 10
89700.0
 20
-37793.45991561183
 30
0.0
  0
VERTEX
  5
1B4
330
193
100
AcDbEntity
  8
一般
  6
CONTINUOUS
 62
     7
100
AcDbVertex
100
AcDb2dVertex
 10
90050.0
 20
-60843.45991561184
 30
0.0
  0
SEQEND
  5
1B5
330
193
100
AcDbEntity
  8
一般
  6
CONTINUOUS
 62
     7
  0
LINE
  5
1B7
330
A
100
AcDbEntity
  8
一般
  6
CONTINUOUS
 62
     7
100
AcDbLine
 10
90050.0
 20
-60843.45991561184
 30
0.0
 11
90450.0
 21
-81643.45991561184
 31
0.0
  0
LINE
  5
1B8
330
A
100
AcDbEntity
  8
一般
  6
CONTINUOUS
 62
     7
100
AcDbLine
 10
-12500.0
 20
-77843.45991561183
 30
0.0
 11
-16828.86597938144
 21
-81643.45991561184
 31
0.0
  0
LINE
  5
1B9
330
A
100
AcDbEntity
  8
一般
  6
CONTINUOUS
 62
     7
100
AcDbLine
 10
-13100.0
 20
-77093.45991561184
 30
0.0
 11
-12500.0
 21
-77843.45991561183
 31
0.0
  0
LINE
  5
1BA
330
A
100
AcDbEntity
  8
一般
  6
CONTINUOUS
 62
     7
100
AcDbLine
 10
-13050.0
 20
-74993.45991561184
 30
0.0
 11
-13100.0
 21
-77093.45991561184
 31
0.0
  0
LINE
  5
1BB
330
A
100
AcDbEntity
  8
一般
  6
CONTINUOUS
 62
     7
100
AcDbLine
 10
-9350.0
 20
-71693.45991561184
 30
0.0
 11
-13050.0
 21
-74993.45991561184
 31
0.0
  0
LINE
  5
1BC
330
A
100
AcDbEntity
  8
一般
  6
CONTINUOUS
 62
     7
100
AcDbLine
 10
-3150.0
 20
-72043.45991561183
 30
0.0
 11
-9350.0
 21
-71693.45991561184
 31
0.0
  0
LINE
  5
1BD
330
A
100
AcDbEntity
  8
一般
  6
CONTINUOUS
 62
     7
100
AcDbLine
 10
8700.0
 20
-61743.45991561184
 30
0.0
 11
-3150.0
 21
-72043.45991561183
 31
0.0
  0
LINE
  5
1BE
330
A
100
AcDbEntity
  8
一般
  6
CONTINUOUS
 62
     7
100
AcDbLine
 10
8450.0
 20
-56943.45991561183
 30
0.0
 11
8700.0
 21
-61743.45991561184
 31
0.0
  0
LINE
  5
1BF
330
A
100
AcDbEntity
  8
一般
  6
CONTINUOUS
 62
     7
100
AcDbLine
 10
3750.0
 20
-51393.45991561183
 30
0.0
 11
8450.0
 21
-56943.45991561183
 31
0.0
  0
LINE
  5
1C0
330
A
100
AcDbEntity
  8
一般
  6
CONTINUOUS
 62
     7
100
AcDbLine
 10
5550.0
 20
-49693.45991561183
 30
0.0
 11
3750.0
 21
-51393.45991561183
 31
0.0
  0
LINE
  5
1C1
330
A
100
AcDbEntity
  8
一般
  6
CONTINUOUS
 62
     7
100
AcDbLine
 10
11650.0
 20
-44393.45991561182
 30
0.0
 11
5550.0
 21
-49693.45991561183
 31
0.0
  0
LINE
  5
1C2
330
A
100
AcDbEntity
  8
一般
  6
CONTINUOUS
 62
     7
100
AcDbLine
 10
13200.0
 20
-43493.45991561182
 30
0.0
 11
11650.0
 21
-44393.45991561182
 31
0.0
  0
LINE
  5
1C3
330
A
100
AcDbEntity
  8
一般
  6
CONTINUOUS
 62
     7
100
AcDbLine
 10
15450.0
 20
-42643.45991561182
 30
0.0
 11
13200.0
 21
-43493.45991561182
 31
0.0
  0
LINE
  5
1C4
330
A
100
AcDbEntity
  8
一般
  6
CONTINUOUS
 62
     7
100
AcDbLine
 10
17400.0
 20
-42293.45991561182
 30
0.0
 11
15450.0
 21
-42643.45991561182
 31
0.0
  0
LINE
  5
1C5
330
A
100
AcDbEntity
  8
一般
  6
CONTINUOUS
 62
     7
100
AcDbLine
 10
18900.0
 20
-42293.45991561182
 30
0.0
 11
17400.0
 21
-42293.45991561182
 31
0.0
  0
LINE
  5
1C6
330
A
100
AcDbEntity
  8
一般
  6
CONTINUOUS
 62
     7
100
AcDbLine
 10
20700.0
 20
-42443.45991561182
 30
0.0
 11
18900.0
 21
-42293.45991561182
 31
0.0
  0
LINE
  5
1C7
330
A
100
AcDbEntity
  8
一般
  6
CONTINUOUS
 62
     7
100
AcDbLine
 10
27400.0
 20
-43893.45991561182
 30
0.0
 11
20700.0
 21
-42443.45991561182
 31
0.0
  0
LINE
  5
1C8
330
A
100
AcDbEntity
  8
一般
  6
CONTINUOUS
 62
     7
100
AcDbLine
 10
28750.0
 20
-44193.45991561183
 30
0.0
 11
27400.0
 21
-43893.45991561182
 31
0.0
  0
LINE
  5
1C9
330
A
100
AcDbEntity
  8
一般
  6
CONTINUOUS
 62
     7
100
AcDbLine
 10
29300.0
 20
-44393.45991561182
 30
0.0
 11
28750.0
 21
-44193.45991561183
 31
0.0
  0
LINE
  5
1CA
330
A
100
AcDbEntity
  8
一般
  6
CONTINUOUS
 62
     7
100
AcDbLine
 10
29500.0
 20
-44793.45991561182
 30
0.0
 11
29300.0
 21
-44393.45991561182
 31
0.0
  0
LINE
  5
1CB
330
A
100
AcDbEntity
  8
一般
  6
CONTINUOUS
 62
     7
100
AcDbLine
 10
29500.0
 20
-45743.45991561182
 30
0.0
 11
29500.0
 21
-44793.45991561182
 31
0.0
  0
LINE
  5
1CC
330
A
100
AcDbEntity
  8
一般
  6
CONTINUOUS
 62
     7
100
AcDbLine
 10
28550.0
 20
-49743.45991561183
 30
0.0
 11
29500.0
 21
-45743.45991561182
 31
0.0
  0
POLYLINE
  5
1CD
330
A
100
AcDbEntity
  8
一般
  6
CONTINUOUS
 62
     7
100
AcDb2dPolyline
 66
     1
 10
0.0
 20
0.0
 30
0.0
 75
     5
  0
VERTEX
  5
1CE
330
1CD
100
AcDbEntity
  8
一般
  6
CONTINUOUS
 62
     7
100
AcDbVertex
100
AcDb2dVertex
 10
51756.66666666668
 20
95006.54008438816
 30
0.0
  0
VERTEX
  5
1CF
330
1CD
100
AcDbEntity
  8
一般
  6
CONTINUOUS
 62
     7
100
AcDbVertex
100
AcDb2dVertex
 10
58500.0
 20
80556.54008438819
 30
0.0
  0
VERTEX
  5
1D0
330
1CD
100
AcDbEntity
  8
一般
  6
CONTINUOUS
 62
     7
100
AcDbVertex
100
AcDb2dVertex
 10
60700.0
 20
75656.54008438819
 30
0.0
  0
VERTEX
  5
1D1
330
1CD
100
AcDbEntity
  8
一般
  6
CONTINUOUS
 62
     7
100
AcDbVertex
100
AcDb2dVertex
 10
63000.0
 20
70356.54008438816
 30
0.0
  0
VERTEX
  5
1D2
330
1CD
100
AcDbEntity
  8
一般
  6
CONTINUOUS
 62
     7
100
AcDbVertex
100
AcDb2dVertex
 10
64800.0
 20
65756.54008438816
 30
0.0
  0
VERTEX
  5
1D3
330
1CD
100
AcDbEntity
  8
一般
  6
CONTINUOUS
 62
     7
100
AcDbVertex
100
AcDb2dVertex
 10
66500.0
 20
60256.54008438817
 30
0.0
  0
VERTEX
  5
1D4
330
1CD
100
AcDbEntity
  8
一般
  6
CONTINUOUS
 62
     7
100
AcDbVertex
100
AcDb2dVertex
 10
67900.0
 20
55156.54008438816
 30
0.0
  0
VERTEX
  5
1D5
330
1CD
100
AcDbEntity
  8
一般
  6
CONTINUOUS
 62
     7
100
AcDbVertex
100
AcDb2dVertex
 10
69700.0
 20
45956.54008438817
 30
0.0
  0
VERTEX
  5
1D6
330
1CD
100
AcDbEntity
  8
一般
  6
CONTINUOUS
 62
     7
100
AcDbVertex
100
AcDb2dVertex
 10
71500.0
 20
36556.54008438817
 30
0.0
  0
VERTEX
  5
1D7
330
1CD
100
AcDbEntity
  8
一般
  6
CONTINUOUS
 62
     7
100
AcDbVertex
100
AcDb2dVertex
 10
74300.0
 20
20456.54008438817
 30
0.0
  0
VERTEX
  5
1D8
330
1CD
100
AcDbEntity
  8
一般
  6
CONTINUOUS
 62
     7
100
AcDbVertex
100
AcDb2dVertex
 10
76300.0
 20
10156.54008438817
 30
0.0
  0
VERTEX
  5
1D9
330
1CD
100
AcDbEntity
  8
一般
  6
CONTINUOUS
 62
     7
100
AcDbVertex
100
AcDb2dVertex
 10
77100.0
 20
5156.540084388179
 30
0.0
  0
VERTEX
  5
1DA
330
1CD
100
AcDbEntity
  8
一般
  6
CONTINUOUS
 62
     7
100
AcDbVertex
100
AcDb2dVertex
 10
77800.0
 20
656.5400843881798
 30
0.0
  0
VERTEX
  5
1DB
330
1CD
100
AcDbEntity
  8
一般
  6
CONTINUOUS
 62
     7
100
AcDbVertex
100
AcDb2dVertex
 10
78600.0
 20
-5643.459915611821
 30
0.0
  0
VERTEX
  5
1DC
330
1CD
100
AcDbEntity
  8
一般
  6
CONTINUOUS
 62
     7
100
AcDbVertex
100
AcDb2dVertex
 10
79600.0
 20
-8843.459915611822
 30
0.0
  0
VERTEX
  5
1DD
330
1CD
100
AcDbEntity
  8
一般
  6
CONTINUOUS
 62
     7
100
AcDbVertex
100
AcDb2dVertex
 10
81500.0
 20
-12343.45991561182
 30
0.0
  0
VERTEX
  5
1DE
330
1CD
100
AcDbEntity
  8
一般
  6
CONTINUOUS
 62
     7
100
AcDbVertex
100
AcDb2dVertex
 10
84000.0
 20
-15143.45991561182
 30
0.0
  0
VERTEX
  5
1DF
330
1CD
100
AcDbEntity
  8
一般
  6
CONTINUOUS
 62
     7
100
AcDbVertex
100
AcDb2dVertex
 10
87600.0
 20
-18943.45991561182
 30
0.0
  0
VERTEX
  5
1E0
330
1CD
100
AcDbEntity
  8
一般
  6
CONTINUOUS
 62
     7
100
AcDbVertex
100
AcDb2dVertex
 10
91300.0
 20
-22643.45991561182
 30
0.0
  0
VERTEX
  5
1E1
330
1CD
100
AcDbEntity
  8
一般
  6
CONTINUOUS
 62
     7
100
AcDbVertex
100
AcDb2dVertex
 10
93200.0
 20
-24943.45991561182
 30
0.0
  0
VERTEX
  5
1E2
330
1CD
100
AcDbEntity
  8
一般
  6
CONTINUOUS
 62
     7
100
AcDbVertex
100
AcDb2dVertex
 10
94900.0
 20
-27843.45991561183
 30
0.0
  0
VERTEX
  5
1E3
330
1CD
100
AcDbEntity
  8
一般
  6
CONTINUOUS
 62
     7
100
AcDbVertex
100
AcDb2dVertex
 10
96100.0
 20
-30643.45991561182
 30
0.0
  0
VERTEX
  5
1E4
330
1CD
100
AcDbEntity
  8
一般
  6
CONTINUOUS
 62
     7
100
AcDbVertex
100
AcDb2dVertex
 10
97000.0
 20
-33843.45991561183
 30
0.0
  0
VERTEX
  5
1E5
330
1CD
100
AcDbEntity
  8
一般
  6
CONTINUOUS
 62
     7
100
AcDbVertex
100
AcDb2dVertex
 10
97400.0
 20
-36643.45991561182
 30
0.0
  0
VERTEX
  5
1E6
330
1CD
100
AcDbEntity
  8
一般
  6
CONTINUOUS
 62
     7
100
AcDbVertex
100
AcDb2dVertex
 10
97900.0
 20
-71143.45991561183
 30
0.0
  0
VERTEX
  5
1E7
330
1CD
100
AcDbEntity
  8
一般
  6
CONTINUOUS
 62
     7
100
AcDbVertex
100
AcDb2dVertex
 10
98200.0
 20
-81643.45991561184
 30
0.0
  0
SEQEND
  5
1E8
330
1CD
100
AcDbEntity
  8
一般
  6
CONTINUOUS
 62
     7
  0
POLYLINE
  5
1EA
330
A
100
AcDbEntity
  8
一般
  6
CONTINUOUS
 62
     7
100
AcDb2dPolyline
 66
     1
 10
0.0
 20
0.0
 30
0.0
 75
     5
  0
VERTEX
  5
1EB
330
1EA
100
AcDbEntity
  8
一般
  6
CONTINUOUS
 62
     7
100
AcDbVertex
100
AcDb2dVertex
 10
-92500.0
 20
107156.5400843881
 30
0.0
  0
VERTEX
  5
1EC
330
1EA
100
AcDbEntity
  8
一般
  6
CONTINUOUS
 62
     7
100
AcDbVertex
100
AcDb2dVertex
 10
-61100.0
 20
107756.5400843881
 30
0.0
  0
VERTEX
  5
1ED
330
1EA
100
AcDbEntity
  8
一般
  6
CONTINUOUS
 62
     7
100
AcDbVertex
100
AcDb2dVertex
 10
-36400.0
 20
107956.5400843881
 30
0.0
  0
VERTEX
  5
1EE
330
1EA
100
AcDbEntity
  8
一般
  6
CONTINUOUS
 62
     7
100
AcDbVertex
100
AcDb2dVertex
 10
-19300.0
 20
107956.5400843881
 30
0.0
  0
VERTEX
  5
1EF
330
1EA
100
AcDbEntity
  8
一般
  6
CONTINUOUS
 62
     7
100
AcDbVertex
100
AcDb2dVertex
 10
28100.0
 20
108156.5400843881
 30
0.0
  0
VERTEX
  5
1F0
330
1EA
100
AcDbEntity
  8
一般
  6
CONTINUOUS
 62
     7
100
AcDbVertex
100
AcDb2dVertex
 10
61100.0
 20
108156.5400843881
 30
0.0
  0
SEQEND
  5
1F1
330
1EA
100
AcDbEntity
  8
一般
  6
CONTINUOUS
 62
     7
  0
LINE
  5
1F3
330
A
100
AcDbEntity
  8
一般
  6
CONTINUOUS
 62
     7
100
AcDbLine
 10
-89477.02702702704
 20
61318.70224655033
 30
0.0
 11
-78203.51351351352
 21
69517.62116546928
 31
0.0
  0
LINE
  5
1F4
330
A
100
AcDbEntity
  8
一般
  6
CONTINUOUS
 62
     7
100
AcDbLine
 10
-83678.10810810807
 20
53345.18873303682
 30
0.0
 11
-89477.02702702704
 21
61318.70224655033
 31
0.0
  0
LINE
  5
1F5
330
A
100
AcDbEntity
  8
一般
  6
CONTINUOUS
 62
     7
100
AcDbLine
 10
-74779.41176470588
 20
64809.48126085875
 30
0.0
 11
-78203.51351351352
 21
69517.62116546928
 31
0.0
  0
LINE
  5
1F6
330
A
100
AcDbEntity
  8
一般
  6
CONTINUOUS
 62
     7
100
AcDbLine
 10
-83678.10810810807
 20
53345.18873303682
 30
0.0
 11
-78915.18518518518
 21
56809.13267698078
 31
0.0
  0
LINE
  5
1F7
330
A
100
AcDbEntity
  8
一般
  6
CONTINUOUS
 62
     7
100
AcDbLine
 10
-74779.41176470588
 20
64809.48126085875
 30
0.0
 11
-78915.18518518518
 21
56809.13267698078
 31
0.0
  0
LINE
  5
1F8
330
A
100
AcDbEntity
  8
一般
  6
CONTINUOUS
 62
     7
100
AcDbLine
 10
-76900.0
 20
60256.54008438817
 30
0.0
 11
-77089.11016949152
 21
60341.54008438816
 31
0.0
  0
LINE
  5
1F9
330
A
100
AcDbEntity
  8
一般
  6
CONTINUOUS
 62
     7
100
AcDbLine
 10
-68834.05405405404
 20
48440.8644087125
 30
0.0
 11
-63869.18918918921
 21
52051.67521952333
 31
0.0
  0
LINE
  5
1FA
330
A
100
AcDbEntity
  8
一般
  6
CONTINUOUS
 62
     7
100
AcDbLine
 10
-58202.16216216216
 20
44259.51305736115
 30
0.0
 11
-63869.18918918921
 21
52051.67521952333
 31
0.0
  0
LINE
  5
1FB
330
A
100
AcDbEntity
  8
一般
  6
CONTINUOUS
 62
     7
100
AcDbLine
 10
-61497.83783783783
 20
38353.56711141519
 30
0.0
 11
-68834.05405405404
 21
48440.8644087125
 31
0.0
  0
LINE
  5
1FC
330
A
100
AcDbEntity
  8
一般
  6
CONTINUOUS
 62
     7
100
AcDbLine
 10
-61497.83783783783
 20
38353.56711141519
 30
0.0
 11
-59809.18918918917
 21
39581.67521952332
 31
0.0
  0
LINE
  5
1FD
330
A
100
AcDbEntity
  8
一般
  6
CONTINUOUS
 62
     7
100
AcDbLine
 10
-61478.37837837836
 20
41876.81035465844
 30
0.0
 11
-58202.16216216216
 21
44259.51305736115
 31
0.0
  0
LINE
  5
1FE
330
A
100
AcDbEntity
  8
一般
  6
CONTINUOUS
 62
     7
100
AcDbLine
 10
-59809.18918918917
 20
39581.67521952332
 30
0.0
 11
-61478.37837837836
 21
41876.81035465844
 31
0.0
  0
LINE
  5
1FF
330
A
100
AcDbEntity
  8
一般
  6
CONTINUOUS
 62
     7
100
AcDbLine
 10
-64700.0
 20
51556.54008438816
 30
0.0
 11
-64645.0
 21
51487.44917529726
 31
0.0
  0
LINE
  5
200
330
A
100
AcDbEntity
  8
一般
  6
CONTINUOUS
 62
     7
100
AcDbLine
 10
6201.603925169284
 20
69897.26945429521
 30
0.0
 11
11246.96717548491
 21
65651.17166937612
 31
0.0
  0
LINE
  5
201
330
A
100
AcDbEntity
  8
一般
  6
CONTINUOUS
 62
     7
100
AcDbLine
 10
2133.544703316881
 20
65063.4579083294
 30
0.0
 11
7178.9079536325
 21
60817.36012341033
 31
0.0
  0
LINE
  5
202
330
A
100
AcDbEntity
  8
一般
  6
CONTINUOUS
 62
     7
100
AcDbLine
 10
2133.544703316881
 20
65063.4579083294
 30
0.0
 11
6201.603925169284
 21
69897.26945429521
 31
0.0
  0
LINE
  5
203
330
A
100
AcDbEntity
  8
一般
  6
CONTINUOUS
 62
     7
100
AcDbLine
 10
7178.9079536325
 20
60817.36012341033
 30
0.0
 11
11246.96717548491
 21
65651.17166937612
 31
0.0
  0
POLYLINE
  5
204
330
A
100
AcDbEntity
  8
一般
  6
CONTINUOUS
 62
     7
100
AcDb2dPolyline
 66
     1
 10
0.0
 20
0.0
 30
0.0
 70
     1
 75
     5
  0
VERTEX
  5
205
330
204
100
AcDbEntity
  8
一般
  6
CONTINUOUS
 62
     7
100
AcDbVertex
100
AcDb2dVertex
 10
69700.0
 20
-38343.45991561182
 30
0.0
  0
VERTEX
  5
206
330
204
100
AcDbEntity
  8
一般
  6
CONTINUOUS
 62
     7
100
AcDbVertex
100
AcDb2dVertex
 10
70240.0
 20
-37403.45991561182
 30
0.0
  0
VERTEX
  5
207
330
204
100
AcDbEntity
  8
一般
  6
CONTINUOUS
 62
     7
100
AcDbVertex
100
AcDb2dVertex
 10
70660.0
 20
-36443.45991561182
 30
0.0
  0
VERTEX
  5
208
330
204
100
AcDbEntity
  8
一般
  6
CONTINUOUS
 62
     7
100
AcDbVertex
100
AcDb2dVertex
 10
70940.0
 20
-35723.45991561182
 30
0.0
  0
VERTEX
  5
209
330
204
100
AcDbEntity
  8
一般
  6
CONTINUOUS
 62
     7
100
AcDbVertex
100
AcDb2dVertex
 10
71020.0
 20
-35403.45991561182
 30
0.0
  0
VERTEX
  5
20A
330
204
100
AcDbEntity
  8
一般
  6
CONTINUOUS
 62
     7
100
AcDbVertex
100
AcDb2dVertex
 10
71280.0
 20
-35183.45991561182
 30
0.0
  0
VERTEX
  5
20B
330
204
100
AcDbEntity
  8
一般
  6
CONTINUOUS
 62
     7
100
AcDbVertex
100
AcDb2dVertex
 10
71520.0
 20
-35143.45991561182
 30
0.0
  0
VERTEX
  5
20C
330
204
100
AcDbEntity
  8
一般
  6
CONTINUOUS
 62
     7
100
AcDbVertex
100
AcDb2dVertex
 10
71860.0
 20
-35203.45991561182
 30
0.0
  0
VERTEX
  5
20D
330
204
100
AcDbEntity
  8
一般
  6
CONTINUOUS
 62
     7
100
AcDbVertex
100
AcDb2dVertex
 10
72180.0
 20
-35663.45991561183
 30
0.0
  0
VERTEX
  5
20E
330
204
100
AcDbEntity
  8
一般
  6
CONTINUOUS
 62
     7
100
AcDbVertex
100
AcDb2dVertex
 10
74160.0
 20
-39143.45991561182
 30
0.0
  0
VERTEX
  5
20F
330
204
100
AcDbEntity
  8
一般
  6
CONTINUOUS
 62
     7
100
AcDbVertex
100
AcDb2dVertex
 10
74260.0
 20
-39463.45991561182
 30
0.0
  0
VERTEX
  5
210
330
204
100
AcDbEntity
  8
一般
  6
CONTINUOUS
 62
     7
100
AcDbVertex
100
AcDb2dVertex
 10
74160.0
 20
-39783.45991561182
 30
0.0
  0
VERTEX
  5
211
330
204
100
AcDbEntity
  8
一般
  6
CONTINUOUS
 62
     7
100
AcDbVertex
100
AcDb2dVertex
 10
73880.0
 20
-40023.45991561182
 30
0.0
  0
VERTEX
  5
212
330
204
100
AcDbEntity
  8
一般
  6
CONTINUOUS
 62
     7
100
AcDbVertex
100
AcDb2dVertex
 10
72000.0
 20
-39463.45991561182
 30
0.0
  0
VERTEX
  5
213
330
204
100
AcDbEntity
  8
一般
  6
CONTINUOUS
 62
     7
100
AcDbVertex
100
AcDb2dVertex
 10
71220.0
 20
-39283.45991561183
 30
0.0
  0
VERTEX
  5
214
330
204
100
AcDbEntity
  8
一般
  6
CONTINUOUS
 62
     7
100
AcDbVertex
100
AcDb2dVertex
 10
70100.0
 20
-39243.45991561183
 30
0.0
  0
VERTEX
  5
215
330
204
100
AcDbEntity
  8
一般
  6
CONTINUOUS
 62
     7
100
AcDbVertex
100
AcDb2dVertex
 10
69720.0
 20
-39103.45991561182
 30
0.0
  0
VERTEX
  5
216
330
204
100
AcDbEntity
  8
一般
  6
CONTINUOUS
 62
     7
100
AcDbVertex
100
AcDb2dVertex
 10
69580.0
 20
-38863.45991561182
 30
0.0
  0
VERTEX
  5
217
330
204
100
AcDbEntity
  8
一般
  6
CONTINUOUS
 62
     7
100
AcDbVertex
100
AcDb2dVertex
 10
69560.0
 20
-38583.45991561182
 30
0.0
  0
SEQEND
  5
218
330
204
100
AcDbEntity
  8
一般
  6
CONTINUOUS
 62
     7
  0
LINE
  5
21A
330
A
100
AcDbEntity
  8
一般
  6
CONTINUOUS
 62
     7
100
AcDbLine
 10
-92500.0
 20
55135.66994256659
 30
0.0
 11
-82984.99617528788
 21
42256.54008438818
 31
0.0
  0
LINE
  5
21B
330
A
100
AcDbEntity
  8
一般
  6
CONTINUOUS
 62
     7
100
AcDbLine
 10
-83922.02281539615
 20
41564.27188283529
 30
0.0
 11
-66712.68145447517
 21
17678.48270398114
 31
0.0
  0
LINE
  5
21C
330
A
100
AcDbEntity
  8
一般
  6
CONTINUOUS
 62
     7
100
AcDbLine
 10
-58998.73047328719
 20
18397.21249853261
 30
0.0
 11
-41605.74968682988
 21
-5743.45991561182
 31
0.0
  0
LINE
  5
21D
330
A
100
AcDbEntity
  8
一般
  6
CONTINUOUS
 62
     7
100
AcDbLine
 10
-63533.24978657181
 20
19969.21400437756
 30
0.0
 11
-61238.1624831889
 21
16783.73640090841
 31
0.0
  0
LINE
  5
21E
330
A
100
AcDbEntity
  8
一般
  6
CONTINUOUS
 62
     7
100
AcDbLine
 10
-39942.78599230449
 20
-4593.45991561182
 30
0.0
 11
-30160.61798142688
 21
-18170.66766108301
 31
0.0
  0
LINE
  5
21F
330
A
100
AcDbEntity
  8
一般
  6
CONTINUOUS
 62
     7
100
AcDbLine
 10
-27080.33450851571
 20
-18301.74355354732
 30
0.0
 11
-9134.727177142629
 21
-38593.61656540969
 31
0.0
  0
LINE
  5
220
330
A
100
AcDbEntity
  8
一般
  6
CONTINUOUS
 62
     7
100
AcDbLine
 10
-83922.02281539615
 20
41564.27188283529
 30
0.0
 11
-82984.99617528788
 21
42256.54008438818
 31
0.0
  0
LINE
  5
221
330
A
100
AcDbEntity
  8
一般
  6
CONTINUOUS
 62
     7
100
AcDbLine
 10
-66712.68145447517
 20
17678.48270398114
 30
0.0
 11
-63533.24978657181
 21
19969.21400437756
 31
0.0
  0
LINE
  5
222
330
A
100
AcDbEntity
  8
一般
  6
CONTINUOUS
 62
     7
100
AcDbLine
 10
-61240.0
 20
16782.41249849003
 30
0.0
 11
-58998.73047328719
 21
18397.21249853261
 31
0.0
  0
LINE
  5
223
330
A
100
AcDbEntity
  8
一般
  6
CONTINUOUS
 62
     7
100
AcDbLine
 10
-41510.36389727705
 20
-5843.45991561182
 30
0.0
 11
-39885.59469460691
 21
-4672.838855864081
 31
0.0
  0
LINE
  5
224
330
A
100
AcDbEntity
  8
一般
  6
CONTINUOUS
 62
     7
100
AcDbLine
 10
-30160.61798142688
 20
-18170.66766108301
 30
0.0
 11
-27080.33450851571
 21
-18301.74355354732
 31
0.0
  0
LINE
  5
225
330
A
100
AcDbEntity
  8
一般
  6
CONTINUOUS
 62
     7
100
AcDbLine
 10
-8913.891086902673
 20
-40454.94932600355
 30
0.0
 11
-9134.727177142629
 21
-38593.61656540969
 31
0.0
  0
POLYLINE
  5
226
330
A
100
AcDbEntity
  8
一般
  6
CONTINUOUS
 62
     7
100
AcDb2dPolyline
 66
     1
 10
0.0
 20
0.0
 30
0.0
 75
     5
  0
VERTEX
  5
227
330
226
100
AcDbEntity
  8
一般
  6
CONTINUOUS
 62
     7
100
AcDbVertex
100
AcDb2dVertex
 10
8700.0
 20
-40143.45991561182
 30
0.0
  0
VERTEX
  5
228
330
226
100
AcDbEntity
  8
一般
  6
CONTINUOUS
 62
     7
100
AcDbVertex
100
AcDb2dVertex
 10
8780.0
 20
-40643.45991561182
 30
0.0
  0
VERTEX
  5
229
330
226
100
AcDbEntity
  8
一般
  6
CONTINUOUS
 62
     7
100
AcDbVertex
100
AcDb2dVertex
 10
8740.0
 20
-41223.45991561182
 30
0.0
  0
VERTEX
  5
22A
330
226
100
AcDbEntity
  8
一般
  6
CONTINUOUS
 62
     7
100
AcDbVertex
100
AcDb2dVertex
 10
8520.0
 20
-41703.45991561182
 30
0.0
  0
VERTEX
  5
22B
330
226
100
AcDbEntity
  8
一般
  6
CONTINUOUS
 62
     7
100
AcDbVertex
100
AcDb2dVertex
 10
8120.0
 20
-42203.27454600423
 30
0.0
  0
VERTEX
  5
22C
330
226
100
AcDbEntity
  8
一般
  6
CONTINUOUS
 62
     7
100
AcDbVertex
100
AcDb2dVertex
 10
928.263801339548
 20
-48563.45991561183
 30
0.0
  0
VERTEX
  5
22D
330
226
100
AcDbEntity
  8
一般
  6
CONTINUOUS
 62
     7
100
AcDbVertex
100
AcDb2dVertex
 10
320.0
 20
-48983.45991561183
 30
0.0
  0
VERTEX
  5
22E
330
226
100
AcDbEntity
  8
一般
  6
CONTINUOUS
 62
     7
100
AcDbVertex
100
AcDb2dVertex
 10
-200.0
 20
-49123.45991561183
 30
0.0
  0
VERTEX
  5
22F
330
226
100
AcDbEntity
  8
一般
  6
CONTINUOUS
 62
     7
100
AcDbVertex
100
AcDb2dVertex
 10
-720.0
 20
-49123.45991561183
 30
0.0
  0
VERTEX
  5
230
330
226
100
AcDbEntity
  8
一般
  6
CONTINUOUS
 62
     7
100
AcDbVertex
100
AcDb2dVertex
 10
-1260.0
 20
-48983.45991561183
 30
0.0
  0
VERTEX
  5
231
330
226
100
AcDbEntity
  8
一般
  6
CONTINUOUS
 62
     7
100
AcDbVertex
100
AcDb2dVertex
 10
-2240.0
 20
-48001.40612346581
 30
0.0
  0
VERTEX
  5
232
330
226
100
AcDbEntity
  8
一般
  6
CONTINUOUS
 62
     7
100
AcDbVertex
100
AcDb2dVertex
 10
-8913.891086902673
 20
-40454.94932600355
 30
0.0
  0
SEQEND
  5
233
330
226
100
AcDbEntity
  8
一般
  6
CONTINUOUS
 62
     7
  0
CIRCLE
  5
235
330
A
100
AcDbEntity
  8
一般
  6
CONTINUOUS
 62
     7
100
AcDbCircle
 10
-7750.0
 20
-65543.45991561183
 30
0.0
 40
3000.0
  0
LINE
  5
236
330
A
100
AcDbEntity
  8
一般
  6
CONTINUOUS
 62
     7
100
AcDbLine
 10
61100.0
 20
108156.5400843881
 30
0.0
 11
106100.0
 21
108456.5400843881
 31
0.0
  0
LINE
  5
237
330
A
100
AcDbEntity
  8
一般
  6
CONTINUOUS
 62
     7
100
AcDbLine
 10
54450.0
 20
98360.83941753368
 30
0.0
 11
106100.0
 21
98256.54008438817
 31
0.0
  0
LINE
  5
238
330
A
100
AcDbEntity
  8
一般
  6
CONTINUOUS
 62
     7
100
AcDbLine
 10
51756.66666666665
 20
95006.54008438816
 30
0.0
 11
54450.0
 21
98360.83941753368
 31
0.0
  0
POLYLINE
  5
239
330
A
100
AcDbEntity
  8
一般
  6
CONTINUOUS
 62
     7
100
AcDb2dPolyline
 66
     1
 10
0.0
 20
0.0
 30
0.0
 75
     5
  0
VERTEX
  5
23A
330
239
100
AcDbEntity
  8
一般
  6
CONTINUOUS
 62
     7
100
AcDbVertex
100
AcDb2dVertex
 10
-92500.0
 20
-7543.459915611821
 30
0.0
  0
VERTEX
  5
23B
330
239
100
AcDbEntity
  8
一般
  6
CONTINUOUS
 62
     7
100
AcDbVertex
100
AcDb2dVertex
 10
-76700.0
 20
-29743.45991561182
 30
0.0
  0
VERTEX
  5
23C
330
239
100
AcDbEntity
  8
一般
  6
CONTINUOUS
 62
     7
100
AcDbVertex
100
AcDb2dVertex
 10
-77900.0
 20
-35543.45991561183
 30
0.0
  0
VERTEX
  5
23D
330
239
100
AcDbEntity
  8
一般
  6
CONTINUOUS
 62
     7
100
AcDbVertex
100
AcDb2dVertex
 10
-80100.0
 20
-42943.45991561183
 30
0.0
  0
VERTEX
  5
23E
330
239
100
AcDbEntity
  8
一般
  6
CONTINUOUS
 62
     7
100
AcDbVertex
100
AcDb2dVertex
 10
-82300.0
 20
-48743.45991561183
 30
0.0
  0
VERTEX
  5
23F
330
239
100
AcDbEntity
  8
一般
  6
CONTINUOUS
 62
     7
100
AcDbVertex
100
AcDb2dVertex
 10
-85700.0
 20
-54743.45991561183
 30
0.0
  0
VERTEX
  5
240
330
239
100
AcDbEntity
  8
一般
  6
CONTINUOUS
 62
     7
100
AcDbVertex
100
AcDb2dVertex
 10
-89500.0
 20
-60343.45991561183
 30
0.0
  0
VERTEX
  5
241
330
239
100
AcDbEntity
  8
一般
  6
CONTINUOUS
 62
     7
100
AcDbVertex
100
AcDb2dVertex
 10
-92500.0
 20
-64143.45991561183
 30
0.0
  0
SEQEND
  5
242
330
239
100
AcDbEntity
  8
一般
  6
CONTINUOUS
 62
     7
  0
POLYLINE
  5
244
330
A
100
AcDbEntity
  8
一般
  6
CONTINUOUS
 62
     7
100
AcDb2dPolyline
 66
     1
 10
0.0
 20
0.0
 30
0.0
 75
     5
  0
VERTEX
  5
245
330
244
100
AcDbEntity
  8
一般
  6
CONTINUOUS
 62
     7
100
AcDbVertex
100
AcDb2dVertex
 10
-82300.0
 20
-81643.45991561184
 30
0.0
  0
VERTEX
  5
246
330
244
100
AcDbEntity
  8
一般
  6
CONTINUOUS
 62
     7
100
AcDbVertex
100
AcDb2dVertex
 10
-77900.0
 20
-77343.45991561183
 30
0.0
  0
VERTEX
  5
247
330
244
100
AcDbEntity
  8
一般
  6
CONTINUOUS
 62
     7
100
AcDbVertex
100
AcDb2dVertex
 10
-74300.0
 20
-72943.45991561184
 30
0.0
  0
VERTEX
  5
248
330
244
100
AcDbEntity
  8
一般
  6
CONTINUOUS
 62
     7
100
AcDbVertex
100
AcDb2dVertex
 10
-70900.0
 20
-68143.45991561183
 30
0.0
  0
VERTEX
  5
249
330
244
100
AcDbEntity
  8
一般
  6
CONTINUOUS
 62
     7
100
AcDbVertex
100
AcDb2dVertex
 10
-67700.0
 20
-63143.45991561183
 30
0.0
  0
VERTEX
  5
24A
330
244
100
AcDbEntity
  8
一般
  6
CONTINUOUS
 62
     7
100
AcDbVertex
100
AcDb2dVertex
 10
-64500.0
 20
-57143.45991561184
 30
0.0
  0
VERTEX
  5
24B
330
244
100
AcDbEntity
  8
一般
  6
CONTINUOUS
 62
     7
100
AcDbVertex
100
AcDb2dVertex
 10
-62300.0
 20
-51743.45991561184
 30
0.0
  0
VERTEX
  5
24C
330
244
100
AcDbEntity
  8
一般
  6
CONTINUOUS
 62
     7
100
AcDbVertex
100
AcDb2dVertex
 10
-60500.0
 20
-46743.45991561184
 30
0.0
  0
VERTEX
  5
24D
330
244
100
AcDbEntity
  8
一般
  6
CONTINUOUS
 62
     7
100
AcDbVertex
100
AcDb2dVertex
 10
-59300.0
 20
-42543.45991561183
 30
0.0
  0
VERTEX
  5
24E
330
244
100
AcDbEntity
  8
一般
  6
CONTINUOUS
 62
     7
100
AcDbVertex
100
AcDb2dVertex
 10
-57700.0
 20
-36143.45991561183
 30
0.0
  0
VERTEX
  5
24F
330
244
100
AcDbEntity
  8
一般
  6
CONTINUOUS
 62
     7
100
AcDbVertex
100
AcDb2dVertex
 10
-56900.0
 20
-31943.45991561182
 30
0.0
  0
VERTEX
  5
250
330
244
100
AcDbEntity
  8
一般
  6
CONTINUOUS
 62
     7
100
AcDbVertex
100
AcDb2dVertex
 10
-56900.0
 20
-28543.45991561182
 30
0.0
  0
VERTEX
  5
251
330
244
100
AcDbEntity
  8
一般
  6
CONTINUOUS
 62
     7
100
AcDbVertex
100
AcDb2dVertex
 10
-57300.0
 20
-25343.45991561183
 30
0.0
  0
VERTEX
  5
252
330
244
100
AcDbEntity
  8
一般
  6
CONTINUOUS
 62
     7
100
AcDbVertex
100
AcDb2dVertex
 10
-58300.0
 20
-22343.45991561182
 30
0.0
  0
VERTEX
  5
253
330
244
100
AcDbEntity
  8
一般
  6
CONTINUOUS
 62
     7
100
AcDbVertex
100
AcDb2dVertex
 10
-59500.0
 20
-19743.45991561182
 30
0.0
  0
VERTEX
  5
254
330
244
100
AcDbEntity
  8
一般
  6
CONTINUOUS
 62
     7
100
AcDbVertex
100
AcDb2dVertex
 10
-62100.0
 20
-16343.45991561182
 30
0.0
  0
VERTEX
  5
255
330
244
100
AcDbEntity
  8
一般
  6
CONTINUOUS
 62
     7
100
AcDbVertex
100
AcDb2dVertex
 10
-76500.0
 20
4056.54008438818
 30
0.0
  0
VERTEX
  5
256
330
244
100
AcDbEntity
  8
一般
  6
CONTINUOUS
 62
     7
100
AcDbVertex
100
AcDb2dVertex
 10
-77500.0
 20
5256.54008438818
 30
0.0
  0
VERTEX
  5
257
330
244
100
AcDbEntity
  8
一般
  6
CONTINUOUS
 62
     7
100
AcDbVertex
100
AcDb2dVertex
 10
-78300.0
 20
6056.54008438818
 30
0.0
  0
VERTEX
  5
258
330
244
100
AcDbEntity
  8
一般
  6
CONTINUOUS
 62
     7
100
AcDbVertex
100
AcDb2dVertex
 10
-79700.0
 20
6456.54008438818
 30
0.0
  0
VERTEX
  5
259
330
244
100
AcDbEntity
  8
一般
  6
CONTINUOUS
 62
     7
100
AcDbVertex
100
AcDb2dVertex
 10
-80500.0
 20
6456.54008438818
 30
0.0
  0
VERTEX
  5
25A
330
244
100
AcDbEntity
  8
一般
  6
CONTINUOUS
 62
     7
100
AcDbVertex
100
AcDb2dVertex
 10
-81700.0
 20
6056.54008438818
 30
0.0
  0
VERTEX
  5
25B
330
244
100
AcDbEntity
  8
一般
  6
CONTINUOUS
 62
     7
100
AcDbVertex
100
AcDb2dVertex
 10
-84100.0
 20
4256.54008438818
 30
0.0
  0
SEQEND
  5
25C
330
244
100
AcDbEntity
  8
一般
  6
CONTINUOUS
 62
     7
  0
LINE
  5
25E
330
A
100
AcDbEntity
  8
一般
  6
CONTINUOUS
 62
     7
100
AcDbLine
 10
-84628.0
 20
4960.540084388179
 30
0.0
 11
-82400.0
 21
6631.540084388181
 31
0.0
  0
LINE
  5
25F
330
A
100
AcDbEntity
  8
一般
  6
CONTINUOUS
 62
     7
100
AcDbLine
 10
-84100.0
 20
4256.54008438818
 30
0.0
 11
-84628.0
 21
4960.540084388179
 31
0.0
  0
POLYLINE
  5
260
330
A
100
AcDbEntity
  8
一般
  6
CONTINUOUS
 62
     7
100
AcDb2dPolyline
 66
     1
 10
0.0
 20
0.0
 30
0.0
 75
     5
  0
VERTEX
  5
261
330
260
100
AcDbEntity
  8
一般
  6
CONTINUOUS
 62
     7
100
AcDbVertex
100
AcDb2dVertex
 10
-82400.0
 20
6631.540084388181
 30
0.0
  0
VERTEX
  5
262
330
260
100
AcDbEntity
  8
一般
  6
CONTINUOUS
 62
     7
100
AcDbVertex
100
AcDb2dVertex
 10
-81550.0
 20
7056.54008438818
 30
0.0
  0
VERTEX
  5
263
330
260
100
AcDbEntity
  8
一般
  6
CONTINUOUS
 62
     7
100
AcDbVertex
100
AcDb2dVertex
 10
-80800.0
 20
7256.540084388179
 30
0.0
  0
VERTEX
  5
264
330
260
100
AcDbEntity
  8
一般
  6
CONTINUOUS
 62
     7
100
AcDbVertex
100
AcDb2dVertex
 10
-79950.0
 20
7356.540084388178
 30
0.0
  0
VERTEX
  5
265
330
260
100
AcDbEntity
  8
一般
  6
CONTINUOUS
 62
     7
100
AcDbVertex
100
AcDb2dVertex
 10
-79250.0
 20
7406.540084388179
 30
0.0
  0
VERTEX
  5
266
330
260
100
AcDbEntity
  8
一般
  6
CONTINUOUS
 62
     7
100
AcDbVertex
100
AcDb2dVertex
 10
-77950.0
 20
7006.540084388181
 30
0.0
  0
VERTEX
  5
267
330
260
100
AcDbEntity
  8
一般
  6
CONTINUOUS
 62
     7
100
AcDbVertex
100
AcDb2dVertex
 10
-77150.0
 20
6356.540084388179
 30
0.0
  0
VERTEX
  5
268
330
260
100
AcDbEntity
  8
一般
  6
CONTINUOUS
 62
     7
100
AcDbVertex
100
AcDb2dVertex
 10
-76000.0
 20
4806.54008438818
 30
0.0
  0
VERTEX
  5
269
330
260
100
AcDbEntity
  8
一般
  6
CONTINUOUS
 62
     7
100
AcDbVertex
100
AcDb2dVertex
 10
-65300.0
 20
-10193.45991561181
 30
0.0
  0
VERTEX
  5
26A
330
260
100
AcDbEntity
  8
一般
  6
CONTINUOUS
 62
     7
100
AcDbVertex
100
AcDb2dVertex
 10
-62950.0
 20
-13543.45991561182
 30
0.0
  0
VERTEX
  5
26B
330
260
100
AcDbEntity
  8
一般
  6
CONTINUOUS
 62
     7
100
AcDbVertex
100
AcDb2dVertex
 10
-60300.0
 20
-17193.45991561182
 30
0.0
  0
VERTEX
  5
26C
330
260
100
AcDbEntity
  8
一般
  6
CONTINUOUS
 62
     7
100
AcDbVertex
100
AcDb2dVertex
 10
-59150.0
 20
-18893.45991561182
 30
0.0
  0
VERTEX
  5
26D
330
260
100
AcDbEntity
  8
一般
  6
CONTINUOUS
 62
     7
100
AcDbVertex
100
AcDb2dVertex
 10
-58300.0
 20
-20393.45991561182
 30
0.0
  0
VERTEX
  5
26E
330
260
100
AcDbEntity
  8
一般
  6
CONTINUOUS
 62
     7
100
AcDbVertex
100
AcDb2dVertex
 10
-57450.0
 20
-22393.45991561182
 30
0.0
  0
VERTEX
  5
26F
330
260
100
AcDbEntity
  8
一般
  6
CONTINUOUS
 62
     7
100
AcDbVertex
100
AcDb2dVertex
 10
-56900.0
 20
-24093.45991561183
 30
0.0
  0
VERTEX
  5
270
330
260
100
AcDbEntity
  8
一般
  6
CONTINUOUS
 62
     7
100
AcDbVertex
100
AcDb2dVertex
 10
-56400.0
 20
-25743.45991561183
 30
0.0
  0
VERTEX
  5
271
330
260
100
AcDbEntity
  8
一般
  6
CONTINUOUS
 62
     7
100
AcDbVertex
100
AcDb2dVertex
 10
-56200.0
 20
-27643.45991561182
 30
0.0
  0
VERTEX
  5
272
330
260
100
AcDbEntity
  8
一般
  6
CONTINUOUS
 62
     7
100
AcDbVertex
100
AcDb2dVertex
 10
-56100.0
 20
-30093.45991561183
 30
0.0
  0
VERTEX
  5
273
330
260
100
AcDbEntity
  8
一般
  6
CONTINUOUS
 62
     7
100
AcDbVertex
100
AcDb2dVertex
 10
-56150.0
 20
-31743.45991561182
 30
0.0
  0
VERTEX
  5
274
330
260
100
AcDbEntity
  8
一般
  6
CONTINUOUS
 62
     7
100
AcDbVertex
100
AcDb2dVertex
 10
-56250.0
 20
-33293.45991561182
 30
0.0
  0
VERTEX
  5
275
330
260
100
AcDbEntity
  8
一般
  6
CONTINUOUS
 62
     7
100
AcDbVertex
100
AcDb2dVertex
 10
-56500.0
 20
-34743.45991561182
 30
0.0
  0
VERTEX
  5
276
330
260
100
AcDbEntity
  8
一般
  6
CONTINUOUS
 62
     7
100
AcDbVertex
100
AcDb2dVertex
 10
-57050.0
 20
-37643.45991561182
 30
0.0
  0
VERTEX
  5
277
330
260
100
AcDbEntity
  8
一般
  6
CONTINUOUS
 62
     7
100
AcDbVertex
100
AcDb2dVertex
 10
-57700.0
 20
-40643.45991561182
 30
0.0
  0
VERTEX
  5
278
330
260
100
AcDbEntity
  8
一般
  6
CONTINUOUS
 62
     7
100
AcDbVertex
100
AcDb2dVertex
 10
-58200.0
 20
-42643.45991561182
 30
0.0
  0
VERTEX
  5
279
330
260
100
AcDbEntity
  8
一般
  6
CONTINUOUS
 62
     7
100
AcDbVertex
100
AcDb2dVertex
 10
-58850.0
 20
-44893.45991561182
 30
0.0
  0
VERTEX
  5
27A
330
260
100
AcDbEntity
  8
一般
  6
CONTINUOUS
 62
     7
100
AcDbVertex
100
AcDb2dVertex
 10
-59750.0
 20
-47743.45991561183
 30
0.0
  0
VERTEX
  5
27B
330
260
100
AcDbEntity
  8
一般
  6
CONTINUOUS
 62
     7
100
AcDbVertex
100
AcDb2dVertex
 10
-61350.0
 20
-52093.45991561184
 30
0.0
  0
VERTEX
  5
27C
330
260
100
AcDbEntity
  8
一般
  6
CONTINUOUS
 62
     7
100
AcDbVertex
100
AcDb2dVertex
 10
-62800.0
 20
-55493.45991561184
 30
0.0
  0
VERTEX
  5
27D
330
260
100
AcDbEntity
  8
一般
  6
CONTINUOUS
 62
     7
100
AcDbVertex
100
AcDb2dVertex
 10
-64200.0
 20
-58343.45991561184
 30
0.0
  0
VERTEX
  5
27E
330
260
100
AcDbEntity
  8
一般
  6
CONTINUOUS
 62
     7
100
AcDbVertex
100
AcDb2dVertex
 10
-65850.0
 20
-61493.45991561183
 30
0.0
  0
VERTEX
  5
27F
330
260
100
AcDbEntity
  8
一般
  6
CONTINUOUS
 62
     7
100
AcDbVertex
100
AcDb2dVertex
 10
-67000.0
 20
-63643.45991561183
 30
0.0
  0
VERTEX
  5
280
330
260
100
AcDbEntity
  8
一般
  6
CONTINUOUS
 62
     7
100
AcDbVertex
100
AcDb2dVertex
 10
-68300.0
 20
-65693.45991561183
 30
0.0
  0
VERTEX
  5
281
330
260
100
AcDbEntity
  8
一般
  6
CONTINUOUS
 62
     7
100
AcDbVertex
100
AcDb2dVertex
 10
-70850.0
 20
-69743.45991561183
 30
0.0
  0
VERTEX
  5
282
330
260
100
AcDbEntity
  8
一般
  6
CONTINUOUS
 62
     7
100
AcDbVertex
100
AcDb2dVertex
 10
-73550.0
 20
-73393.45991561184
 30
0.0
  0
VERTEX
  5
283
330
260
100
AcDbEntity
  8
一般
  6
CONTINUOUS
 62
     7
100
AcDbVertex
100
AcDb2dVertex
 10
-75450.0
 20
-75893.45991561184
 30
0.0
  0
VERTEX
  5
284
330
260
100
AcDbEntity
  8
一般
  6
CONTINUOUS
 62
     7
100
AcDbVertex
100
AcDb2dVertex
 10
-77450.0
 20
-78093.45991561183
 30
0.0
  0
VERTEX
  5
285
330
260
100
AcDbEntity
  8
一般
  6
CONTINUOUS
 62
     7
100
AcDbVertex
100
AcDb2dVertex
 10
-80800.0
 20
-81643.45991561184
 30
0.0
  0
SEQEND
  5
286
330
260
100
AcDbEntity
  8
一般
  6
CONTINUOUS
 62
     7
  0
POLYLINE
  5
288
330
A
100
AcDbEntity
  8
一般
  6
CONTINUOUS
 62
     7
100
AcDb2dPolyline
 66
     1
 10
0.0
 20
0.0
 30
0.0
 75
     5
  0
VERTEX
  5
289
330
288
100
AcDbEntity
  8
一般
  6
CONTINUOUS
 62
     7
100
AcDbVertex
100
AcDb2dVertex
 10
-75250.0
 20
-81643.45991561184
 30
0.0
  0
VERTEX
  5
28A
330
288
100
AcDbEntity
  8
一般
  6
CONTINUOUS
 62
     7
100
AcDbVertex
100
AcDb2dVertex
 10
-72700.0
 20
-78743.45991561184
 30
0.0
  0
VERTEX
  5
28B
330
288
100
AcDbEntity
  8
一般
  6
CONTINUOUS
 62
     7
100
AcDbVertex
100
AcDb2dVertex
 10
-69050.0
 20
-74043.45991561183
 30
0.0
  0
VERTEX
  5
28C
330
288
100
AcDbEntity
  8
一般
  6
CONTINUOUS
 62
     7
100
AcDbVertex
100
AcDb2dVertex
 10
-65950.0
 20
-69543.45991561183
 30
0.0
  0
VERTEX
  5
28D
330
288
100
AcDbEntity
  8
一般
  6
CONTINUOUS
 62
     7
100
AcDbVertex
100
AcDb2dVertex
 10
-62400.0
 20
-63743.45991561184
 30
0.0
  0
VERTEX
  5
28E
330
288
100
AcDbEntity
  8
一般
  6
CONTINUOUS
 62
     7
100
AcDbVertex
100
AcDb2dVertex
 10
-60000.0
 20
-58943.45991561183
 30
0.0
  0
VERTEX
  5
28F
330
288
100
AcDbEntity
  8
一般
  6
CONTINUOUS
 62
     7
100
AcDbVertex
100
AcDb2dVertex
 10
-57100.0
 20
-52093.45991561184
 30
0.0
  0
VERTEX
  5
290
330
288
100
AcDbEntity
  8
一般
  6
CONTINUOUS
 62
     7
100
AcDbVertex
100
AcDb2dVertex
 10
-55650.0
 20
-47943.45991561184
 30
0.0
  0
VERTEX
  5
291
330
288
100
AcDbEntity
  8
一般
  6
CONTINUOUS
 62
     7
100
AcDbVertex
100
AcDb2dVertex
 10
-54300.0
 20
-43393.45991561183
 30
0.0
  0
VERTEX
  5
292
330
288
100
AcDbEntity
  8
一般
  6
CONTINUOUS
 62
     7
100
AcDbVertex
100
AcDb2dVertex
 10
-53350.0
 20
-39243.45991561183
 30
0.0
  0
VERTEX
  5
293
330
288
100
AcDbEntity
  8
一般
  6
CONTINUOUS
 62
     7
100
AcDbVertex
100
AcDb2dVertex
 10
-52750.0
 20
-35993.45991561182
 30
0.0
  0
VERTEX
  5
294
330
288
100
AcDbEntity
  8
一般
  6
CONTINUOUS
 62
     7
100
AcDbVertex
100
AcDb2dVertex
 10
-52550.0
 20
-34643.45991561182
 30
0.0
  0
VERTEX
  5
295
330
288
100
AcDbEntity
  8
一般
  6
CONTINUOUS
 62
     7
100
AcDbVertex
100
AcDb2dVertex
 10
-52300.0
 20
-32493.45991561182
 30
0.0
  0
VERTEX
  5
296
330
288
100
AcDbEntity
  8
一般
  6
CONTINUOUS
 62
     7
100
AcDbVertex
100
AcDb2dVertex
 10
-52200.0
 20
-29943.45991561182
 30
0.0
  0
VERTEX
  5
297
330
288
100
AcDbEntity
  8
一般
  6
CONTINUOUS
 62
     7
100
AcDbVertex
100
AcDb2dVertex
 10
-52200.0
 20
-27793.45991561182
 30
0.0
  0
VERTEX
  5
298
330
288
100
AcDbEntity
  8
一般
  6
CONTINUOUS
 62
     7
100
AcDbVertex
100
AcDb2dVertex
 10
-52800.0
 20
-23893.45991561182
 30
0.0
  0
VERTEX
  5
299
330
288
100
AcDbEntity
  8
一般
  6
CONTINUOUS
 62
     7
100
AcDbVertex
100
AcDb2dVertex
 10
-53150.0
 20
-22543.45991561182
 30
0.0
  0
VERTEX
  5
29A
330
288
100
AcDbEntity
  8
一般
  6
CONTINUOUS
 62
     7
100
AcDbVertex
100
AcDb2dVertex
 10
-57037.5
 20
-23668.45991561183
 30
0.0
  0
SEQEND
  5
29B
330
288
100
AcDbEntity
  8
一般
  6
CONTINUOUS
 62
     7
  0
POLYLINE
  5
29D
330
A
100
AcDbEntity
  8
一般
  6
CONTINUOUS
 62
     7
100
AcDb2dPolyline
 66
     1
 10
0.0
 20
0.0
 30
0.0
 75
     5
  0
VERTEX
  5
29E
330
29D
100
AcDbEntity
  8
一般
  6
CONTINUOUS
 62
     7
100
AcDbVertex
100
AcDb2dVertex
 10
-35872.04845204007
 20
-10243.45991561182
 30
0.0
  0
VERTEX
  5
29F
330
29D
100
AcDbEntity
  8
一般
  6
CONTINUOUS
 62
     7
100
AcDbVertex
100
AcDb2dVertex
 10
-47900.0
 20
-18843.45991561182
 30
0.0
  0
VERTEX
  5
2A0
330
29D
100
AcDbEntity
  8
一般
  6
CONTINUOUS
 62
     7
100
AcDbVertex
100
AcDb2dVertex
 10
-41350.0
 20
-27893.45991561182
 30
0.0
  0
VERTEX
  5
2A1
330
29D
100
AcDbEntity
  8
一般
  6
CONTINUOUS
 62
     7
100
AcDbVertex
100
AcDb2dVertex
 10
-36800.0
 20
-34343.45991561182
 30
0.0
  0
VERTEX
  5
2A2
330
29D
100
AcDbEntity
  8
一般
  6
CONTINUOUS
 62
     7
100
AcDbVertex
100
AcDb2dVertex
 10
-30750.0
 20
-42893.45991561183
 30
0.0
  0
VERTEX
  5
2A3
330
29D
100
AcDbEntity
  8
一般
  6
CONTINUOUS
 62
     7
100
AcDbVertex
100
AcDb2dVertex
 10
-27350.0
 20
-47843.45991561183
 30
0.0
  0
VERTEX
  5
2A4
330
29D
100
AcDbEntity
  8
一般
  6
CONTINUOUS
 62
     7
100
AcDbVertex
100
AcDb2dVertex
 10
-26950.0
 20
-48893.45991561183
 30
0.0
  0
VERTEX
  5
2A5
330
29D
100
AcDbEntity
  8
一般
  6
CONTINUOUS
 62
     7
100
AcDbVertex
100
AcDb2dVertex
 10
-26950.0
 20
-49843.45991561183
 30
0.0
  0
VERTEX
  5
2A6
330
29D
100
AcDbEntity
  8
一般
  6
CONTINUOUS
 62
     7
100
AcDbVertex
100
AcDb2dVertex
 10
-27050.0
 20
-50843.45991561183
 30
0.0
  0
VERTEX
  5
2A7
330
29D
100
AcDbEntity
  8
一般
  6
CONTINUOUS
 62
     7
100
AcDbVertex
100
AcDb2dVertex
 10
-27650.0
 20
-52093.45991561184
 30
0.0
  0
VERTEX
  5
2A8
330
29D
100
AcDbEntity
  8
一般
  6
CONTINUOUS
 62
     7
100
AcDbVertex
100
AcDb2dVertex
 10
-29200.0
 20
-53493.45991561183
 30
0.0
  0
VERTEX
  5
2A9
330
29D
100
AcDbEntity
  8
一般
  6
CONTINUOUS
 62
     7
100
AcDbVertex
100
AcDb2dVertex
 10
-30350.0
 20
-54543.45991561183
 30
0.0
  0
VERTEX
  5
2AA
330
29D
100
AcDbEntity
  8
一般
  6
CONTINUOUS
 62
     7
100
AcDbVertex
100
AcDb2dVertex
 10
-32100.0
 20
-54393.45991561183
 30
0.0
  0
VERTEX
  5
2AB
330
29D
100
AcDbEntity
  8
一般
  6
CONTINUOUS
 62
     7
100
AcDbVertex
100
AcDb2dVertex
 10
-34700.0
 20
-54943.45991561183
 30
0.0
  0
VERTEX
  5
2AC
330
29D
100
AcDbEntity
  8
一般
  6
CONTINUOUS
 62
     7
100
AcDbVertex
100
AcDb2dVertex
 10
-36850.0
 20
-55993.45991561183
 30
0.0
  0
VERTEX
  5
2AD
330
29D
100
AcDbEntity
  8
一般
  6
CONTINUOUS
 62
     7
100
AcDbVertex
100
AcDb2dVertex
 10
-40200.0
 20
-58693.45991561183
 30
0.0
  0
VERTEX
  5
2AE
330
29D
100
AcDbEntity
  8
一般
  6
CONTINUOUS
 62
     7
100
AcDbVertex
100
AcDb2dVertex
 10
-42500.0
 20
-61093.45991561183
 30
0.0
  0
VERTEX
  5
2AF
330
29D
100
AcDbEntity
  8
一般
  6
CONTINUOUS
 62
     7
100
AcDbVertex
100
AcDb2dVertex
 10
-43750.0
 20
-63143.45991561183
 30
0.0
  0
VERTEX
  5
2B0
330
29D
100
AcDbEntity
  8
一般
  6
CONTINUOUS
 62
     7
100
AcDbVertex
100
AcDb2dVertex
 10
-44550.0
 20
-64743.45991561183
 30
0.0
  0
VERTEX
  5
2B1
330
29D
100
AcDbEntity
  8
一般
  6
CONTINUOUS
 62
     7
100
AcDbVertex
100
AcDb2dVertex
 10
-44800.0
 20
-66143.45991561183
 30
0.0
  0
VERTEX
  5
2B2
330
29D
100
AcDbEntity
  8
一般
  6
CONTINUOUS
 62
     7
100
AcDbVertex
100
AcDb2dVertex
 10
-44800.0
 20
-66693.45991561184
 30
0.0
  0
VERTEX
  5
2B3
330
29D
100
AcDbEntity
  8
一般
  6
CONTINUOUS
 62
     7
100
AcDbVertex
100
AcDb2dVertex
 10
-44450.0
 20
-67193.45991561183
 30
0.0
  0
VERTEX
  5
2B4
330
29D
100
AcDbEntity
  8
一般
  6
CONTINUOUS
 62
     7
100
AcDbVertex
100
AcDb2dVertex
 10
-42850.0
 20
-67793.45991561183
 30
0.0
  0
VERTEX
  5
2B5
330
29D
100
AcDbEntity
  8
一般
  6
CONTINUOUS
 62
     7
100
AcDbVertex
100
AcDb2dVertex
 10
-40950.0
 20
-68043.45991561183
 30
0.0
  0
VERTEX
  5
2B6
330
29D
100
AcDbEntity
  8
一般
  6
CONTINUOUS
 62
     7
100
AcDbVertex
100
AcDb2dVertex
 10
-38600.0
 20
-67943.45991561184
 30
0.0
  0
VERTEX
  5
2B7
330
29D
100
AcDbEntity
  8
一般
  6
CONTINUOUS
 62
     7
100
AcDbVertex
100
AcDb2dVertex
 10
-36450.0
 20
-67343.45991561183
 30
0.0
  0
VERTEX
  5
2B8
330
29D
100
AcDbEntity
  8
一般
  6
CONTINUOUS
 62
     7
100
AcDbVertex
100
AcDb2dVertex
 10
-34050.0
 20
-65793.45991561183
 30
0.0
  0
VERTEX
  5
2B9
330
29D
100
AcDbEntity
  8
一般
  6
CONTINUOUS
 62
     7
100
AcDbVertex
100
AcDb2dVertex
 10
-32450.0
 20
-64293.45991561183
 30
0.0
  0
VERTEX
  5
2BA
330
29D
100
AcDbEntity
  8
一般
  6
CONTINUOUS
 62
     7
100
AcDbVertex
100
AcDb2dVertex
 10
-31500.0
 20
-62943.45991561184
 30
0.0
  0
VERTEX
  5
2BB
330
29D
100
AcDbEntity
  8
一般
  6
CONTINUOUS
 62
     7
100
AcDbVertex
100
AcDb2dVertex
 10
-30600.0
 20
-60743.45991561183
 30
0.0
  0
VERTEX
  5
2BC
330
29D
100
AcDbEntity
  8
一般
  6
CONTINUOUS
 62
     7
100
AcDbVertex
100
AcDb2dVertex
 10
-30300.0
 20
-58643.45991561183
 30
0.0
  0
VERTEX
  5
2BD
330
29D
100
AcDbEntity
  8
一般
  6
CONTINUOUS
 62
     7
100
AcDbVertex
100
AcDb2dVertex
 10
-30400.0
 20
-55693.45991561183
 30
0.0
  0
VERTEX
  5
2BE
330
29D
100
AcDbEntity
  8
一般
  6
CONTINUOUS
 62
     7
100
AcDbVertex
100
AcDb2dVertex
 10
-30350.0
 20
-54543.45991561183
 30
0.0
  0
SEQEND
  5
2BF
330
29D
100
AcDbEntity
  8
一般
  6
CONTINUOUS
 62
     7
  0
POLYLINE
  5
2C1
330
A
100
AcDbEntity
  8
一般
  6
CONTINUOUS
 62
     7
100
AcDb2dPolyline
 66
     1
 10
0.0
 20
0.0
 30
0.0
 75
     5
  0
VERTEX
  5
2C2
330
2C1
100
AcDbEntity
  8
一般
  6
CONTINUOUS
 62
     7
100
AcDbVertex
100
AcDb2dVertex
 10
-44537.5
 20
-67068.45991561183
 30
0.0
  0
VERTEX
  5
2C3
330
2C1
100
AcDbEntity
  8
一般
  6
CONTINUOUS
 62
     7
100
AcDbVertex
100
AcDb2dVertex
 10
-50450.0
 20
-72393.45991561183
 30
0.0
  0
VERTEX
  5
2C4
330
2C1
100
AcDbEntity
  8
一般
  6
CONTINUOUS
 62
     7
100
AcDbVertex
100
AcDb2dVertex
 10
-55300.0
 20
-74093.45991561183
 30
0.0
  0
VERTEX
  5
2C5
330
2C1
100
AcDbEntity
  8
一般
  6
CONTINUOUS
 62
     7
100
AcDbVertex
100
AcDb2dVertex
 10
-63850.0
 20
-81643.45991561184
 30
0.0
  0
SEQEND
  5
2C6
330
2C1
100
AcDbEntity
  8
一般
  6
CONTINUOUS
 62
     7
  0
POLYLINE
  5
2C8
330
A
100
AcDbEntity
  8
一般
  6
CONTINUOUS
 62
     7
100
AcDb2dPolyline
 66
     1
 10
0.0
 20
0.0
 30
0.0
 75
     5
  0
VERTEX
  5
2C9
330
2C8
100
AcDbEntity
  8
一般
  6
CONTINUOUS
 62
     7
100
AcDbVertex
100
AcDb2dVertex
 10
-47900.0
 20
-18843.45991561182
 30
0.0
  0
VERTEX
  5
2CA
330
2C8
100
AcDbEntity
  8
一般
  6
CONTINUOUS
 62
     7
100
AcDbVertex
100
AcDb2dVertex
 10
-48300.0
 20
-18543.45991561182
 30
0.0
  0
VERTEX
  5
2CB
330
2C8
100
AcDbEntity
  8
一般
  6
CONTINUOUS
 62
     7
100
AcDbVertex
100
AcDb2dVertex
 10
-48950.0
 20
-18493.45991561182
 30
0.0
  0
VERTEX
  5
2CC
330
2C8
100
AcDbEntity
  8
一般
  6
CONTINUOUS
 62
     7
100
AcDbVertex
100
AcDb2dVertex
 10
-49600.0
 20
-18693.45991561182
 30
0.0
  0
VERTEX
  5
2CD
330
2C8
100
AcDbEntity
  8
一般
  6
CONTINUOUS
 62
     7
100
AcDbVertex
100
AcDb2dVertex
 10
-52900.0
 20
-21193.45991561182
 30
0.0
  0
SEQEND
  5
2CE
330
2C8
100
AcDbEntity
  8
一般
  6
CONTINUOUS
 62
     7
  0
POLYLINE
  5
2D0
330
A
100
AcDbEntity
  8
一般
  6
CONTINUOUS
 62
     7
100
AcDb2dPolyline
 66
     1
 10
0.0
 20
0.0
 30
0.0
 75
     5
  0
VERTEX
  5
2D1
330
2D0
100
AcDbEntity
  8
一般
  6
CONTINUOUS
 62
     7
100
AcDbVertex
100
AcDb2dVertex
 10
-36900.0
 20
-40993.45991561182
 30
0.0
  0
VERTEX
  5
2D2
330
2D0
100
AcDbEntity
  8
一般
  6
CONTINUOUS
 62
     7
100
AcDbVertex
100
AcDb2dVertex
 10
-33400.0
 20
-45843.45991561183
 30
0.0
  0
VERTEX
  5
2D3
330
2D0
100
AcDbEntity
  8
一般
  6
CONTINUOUS
 62
     7
100
AcDbVertex
100
AcDb2dVertex
 10
-33250.0
 20
-46893.45991561183
 30
0.0
  0
VERTEX
  5
2D4
330
2D0
100
AcDbEntity
  8
一般
  6
CONTINUOUS
 62
     7
100
AcDbVertex
100
AcDb2dVertex
 10
-33150.0
 20
-47693.45991561183
 30
0.0
  0
VERTEX
  5
2D5
330
2D0
100
AcDbEntity
  8
一般
  6
CONTINUOUS
 62
     7
100
AcDbVertex
100
AcDb2dVertex
 10
-33400.0
 20
-48843.45991561183
 30
0.0
  0
VERTEX
  5
2D6
330
2D0
100
AcDbEntity
  8
一般
  6
CONTINUOUS
 62
     7
100
AcDbVertex
100
AcDb2dVertex
 10
-33950.0
 20
-49743.45991561183
 30
0.0
  0
VERTEX
  5
2D7
330
2D0
100
AcDbEntity
  8
一般
  6
CONTINUOUS
 62
     7
100
AcDbVertex
100
AcDb2dVertex
 10
-34600.0
 20
-50593.45991561183
 30
0.0
  0
VERTEX
  5
2D8
330
2D0
100
AcDbEntity
  8
一般
  6
CONTINUOUS
 62
     7
100
AcDbVertex
100
AcDb2dVertex
 10
-36050.0
 20
-51243.45991561183
 30
0.0
  0
VERTEX
  5
2D9
330
2D0
100
AcDbEntity
  8
一般
  6
CONTINUOUS
 62
     7
100
AcDbVertex
100
AcDb2dVertex
 10
-37650.0
 20
-52043.45991561183
 30
0.0
  0
VERTEX
  5
2DA
330
2D0
100
AcDbEntity
  8
一般
  6
CONTINUOUS
 62
     7
100
AcDbVertex
100
AcDb2dVertex
 10
-39550.0
 20
-53143.45991561183
 30
0.0
  0
VERTEX
  5
2DB
330
2D0
100
AcDbEntity
  8
一般
  6
CONTINUOUS
 62
     7
100
AcDbVertex
100
AcDb2dVertex
 10
-41700.0
 20
-54643.45991561184
 30
0.0
  0
VERTEX
  5
2DC
330
2D0
100
AcDbEntity
  8
一般
  6
CONTINUOUS
 62
     7
100
AcDbVertex
100
AcDb2dVertex
 10
-43950.0
 20
-56793.45991561183
 30
0.0
  0
VERTEX
  5
2DD
330
2D0
100
AcDbEntity
  8
一般
  6
CONTINUOUS
 62
     7
100
AcDbVertex
100
AcDb2dVertex
 10
-45600.0
 20
-58693.45991561183
 30
0.0
  0
VERTEX
  5
2DE
330
2D0
100
AcDbEntity
  8
一般
  6
CONTINUOUS
 62
     7
100
AcDbVertex
100
AcDb2dVertex
 10
-46950.0
 20
-60493.45991561184
 30
0.0
  0
VERTEX
  5
2DF
330
2D0
100
AcDbEntity
  8
一般
  6
CONTINUOUS
 62
     7
100
AcDbVertex
100
AcDb2dVertex
 10
-47900.0
 20
-62093.45991561184
 30
0.0
  0
VERTEX
  5
2E0
330
2D0
100
AcDbEntity
  8
一般
  6
CONTINUOUS
 62
     7
100
AcDbVertex
100
AcDb2dVertex
 10
-48700.0
 20
-63443.45991561183
 30
0.0
  0
VERTEX
  5
2E1
330
2D0
100
AcDbEntity
  8
一般
  6
CONTINUOUS
 62
     7
100
AcDbVertex
100
AcDb2dVertex
 10
-50350.0
 20
-64993.45991561184
 30
0.0
  0
VERTEX
  5
2E2
330
2D0
100
AcDbEntity
  8
一般
  6
CONTINUOUS
 62
     7
100
AcDbVertex
100
AcDb2dVertex
 10
-55000.0
 20
-69243.45991561184
 30
0.0
  0
SEQEND
  5
2E3
330
2D0
100
AcDbEntity
  8
一般
  6
CONTINUOUS
 62
     7
  0
LINE
  5
2E5
330
A
100
AcDbEntity
  8
一般
  6
CONTINUOUS
 62
     7
100
AcDbLine
 10
70085.21126760562
 20
206.5400843881798
 30
0.0
 11
62750.0
 21
-993.4599156118201
 31
0.0
  0
LINE
  5
2E6
330
A
100
AcDbEntity
  8
一般
  6
CONTINUOUS
 62
     7
100
AcDbLine
 10
68300.0
 20
9956.54008438818
 30
0.0
 11
63350.0
 21
9206.54008438818
 31
0.0
  0
LINE
  5
2E7
330
A
100
AcDbEntity
  8
一般
  6
CONTINUOUS
 62
     7
100
AcDbLine
 10
63350.0
 20
9206.54008438818
 30
0.0
 11
62800.0
 21
12356.54008438817
 31
0.0
  0
CIRCLE
  5
2E8
330
A
100
AcDbEntity
  8
一般
  6
CONTINUOUS
 62
     7
100
AcDbCircle
 10
72200.0
 20
-87750.0
 30
0.0
 40
7499.999999999994
  0
LINE
  5
2E9
330
A
100
AcDbEntity
  8
一般
  6
CONTINUOUS
 62
     7
100
AcDbLine
 10
72200.0
 20
-87750.0
 30
0.0
 11
72200.0
 21
-80250.0
 31
0.0
  0
LINE
  5
2EA
330
A
100
AcDbEntity
  8
一般
  6
CONTINUOUS
 62
     7
100
AcDbLine
 10
71200.0
 20
-79250.0
 30
0.0
 11
71200.0
 21
-76250.0
 31
0.0
  0
LINE
  5
2EB
330
A
100
AcDbEntity
  8
一般
  6
CONTINUOUS
 62
     7
100
AcDbLine
 10
73200.0
 20
-79250.0
 30
0.0
 11
73200.0
 21
-76250.0
 31
0.0
  0
LINE
  5
2EC
330
A
100
AcDbEntity
  8
一般
  6
CONTINUOUS
 62
     7
100
AcDbLine
 10
71200.0
 20
-76250.0
 30
0.0
 11
73200.0
 21
-79250.0
 31
0.0
  0
LINE
  5
2ED
330
A
100
AcDbEntity
  8
一般
  6
CONTINUOUS
 62
     7
100
AcDbLine
 10
72300.0
 20
-87750.0
 30
0.0
 11
72300.0
 21
-80250.0
 31
0.0
  0
LINE
  5
2EE
330
A
100
AcDbEntity
  8
一般
  6
CONTINUOUS
 62
     7
100
AcDbLine
 10
72400.0
 20
-87750.0
 30
0.0
 11
72400.0
 21
-80250.0
 31
0.0
  0
LINE
  5
2EF
330
A
100
AcDbEntity
  8
一般
  6
CONTINUOUS
 62
     7
100
AcDbLine
 10
72100.0
 20
-87750.0
 30
0.0
 11
72100.0
 21
-80250.0
 31
0.0
  0
LINE
  5
2F0
330
A
100
AcDbEntity
  8
一般
  6
CONTINUOUS
 62
     7
100
AcDbLine
 10
72000.0
 20
-87750.0
 30
0.0
 11
72000.0
 21
-80250.0
 31
0.0
  0
POLYLINE
  5
2F1
330
A
100
AcDbEntity
  8
一般
  6
CONTINUOUS
 62
     7
100
AcDb2dPolyline
 66
     1
 10
0.0
 20
0.0
 30
0.0
 70
     1
 75
     5
  0
VERTEX
  5
2F2
330
2F1
100
AcDbEntity
  8
一般
  6
CONTINUOUS
 62
     7
100
AcDbVertex
100
AcDb2dVertex
 10
-89000.0
 20
-94200.0
 30
0.0
  0
VERTEX
  5
2F3
330
2F1
100
AcDbEntity
  8
一般
  6
CONTINUOUS
 62
     7
100
AcDbVertex
100
AcDb2dVertex
 10
-79000.0
 20
-94200.0
 30
0.0
  0
VERTEX
  5
2F4
330
2F1
100
AcDbEntity
  8
一般
  6
CONTINUOUS
 62
     7
100
AcDbVertex
100
AcDb2dVertex
 10
-79000.0
 20
-96200.0
 30
0.0
  0
VERTEX
  5
2F5
330
2F1
100
AcDbEntity
  8
一般
  6
CONTINUOUS
 62
     7
100
AcDbVertex
100
AcDb2dVertex
 10
-89000.0
 20
-96200.0
 30
0.0
  0
SEQEND
  5
2F6
330
2F1
100
AcDbEntity
  8
一般
  6
CONTINUOUS
 62
     7
  0
POLYLINE
  5
2F8
330
A
100
AcDbEntity
  8
一般
  6
CONTINUOUS
 62
     7
100
AcDb2dPolyline
 66
     1
 10
0.0
 20
0.0
 30
0.0
 70
     1
 75
     5
  0
VERTEX
  5
2F9
330
2F8
100
AcDbEntity
  8
一般
  6
CONTINUOUS
 62
     7
100
AcDbVertex
100
AcDb2dVertex
 10
-79000.0
 20
-94200.0
 30
0.0
  0
VERTEX
  5
2FA
330
2F8
100
AcDbEntity
  8
一般
  6
CONTINUOUS
 62
     7
100
AcDbVertex
100
AcDb2dVertex
 10
-69000.0
 20
-94200.0
 30
0.0
  0
VERTEX
  5
2FB
330
2F8
100
AcDbEntity
  8
一般
  6
CONTINUOUS
 62
     7
100
AcDbVertex
100
AcDb2dVertex
 10
-69000.0
 20
-96200.0
 30
0.0
  0
VERTEX
  5
2FC
330
2F8
100
AcDbEntity
  8
一般
  6
CONTINUOUS
 62
     7
100
AcDbVertex
100
AcDb2dVertex
 10
-79000.0
 20
-96200.0
 30
0.0
  0
SEQEND
  5
2FD
330
2F8
100
AcDbEntity
  8
一般
  6
CONTINUOUS
 62
     7
  0
POLYLINE
  5
2FF
330
A
100
AcDbEntity
  8
一般
  6
CONTINUOUS
 62
     7
100
AcDb2dPolyline
 66
     1
 10
0.0
 20
0.0
 30
0.0
 70
     1
 75
     5
  0
VERTEX
  5
300
330
2FF
100
AcDbEntity
  8
一般
  6
CONTINUOUS
 62
     7
100
AcDbVertex
100
AcDb2dVertex
 10
-69000.0
 20
-94200.0
 30
0.0
  0
VERTEX
  5
301
330
2FF
100
AcDbEntity
  8
一般
  6
CONTINUOUS
 62
     7
100
AcDbVertex
100
AcDb2dVertex
 10
-59000.0
 20
-94200.0
 30
0.0
  0
VERTEX
  5
302
330
2FF
100
AcDbEntity
  8
一般
  6
CONTINUOUS
 62
     7
100
AcDbVertex
100
AcDb2dVertex
 10
-59000.0
 20
-96200.0
 30
0.0
  0
VERTEX
  5
303
330
2FF
100
AcDbEntity
  8
一般
  6
CONTINUOUS
 62
     7
100
AcDbVertex
100
AcDb2dVertex
 10
-69000.0
 20
-96200.0
 30
0.0
  0
SEQEND
  5
304
330
2FF
100
AcDbEntity
  8
一般
  6
CONTINUOUS
 62
     7
  0
POLYLINE
  5
306
330
A
100
AcDbEntity
  8
一般
  6
CONTINUOUS
 62
     7
100
AcDb2dPolyline
 66
     1
 10
0.0
 20
0.0
 30
0.0
 70
     1
 75
     5
  0
VERTEX
  5
307
330
306
100
AcDbEntity
  8
一般
  6
CONTINUOUS
 62
     7
100
AcDbVertex
100
AcDb2dVertex
 10
-59000.0
 20
-94200.0
 30
0.0
  0
VERTEX
  5
308
330
306
100
AcDbEntity
  8
一般
  6
CONTINUOUS
 62
     7
100
AcDbVertex
100
AcDb2dVertex
 10
-49000.0
 20
-94200.0
 30
0.0
  0
VERTEX
  5
309
330
306
100
AcDbEntity
  8
一般
  6
CONTINUOUS
 62
     7
100
AcDbVertex
100
AcDb2dVertex
 10
-49000.0
 20
-96200.0
 30
0.0
  0
VERTEX
  5
30A
330
306
100
AcDbEntity
  8
一般
  6
CONTINUOUS
 62
     7
100
AcDbVertex
100
AcDb2dVertex
 10
-59000.0
 20
-96200.0
 30
0.0
  0
SEQEND
  5
30B
330
306
100
AcDbEntity
  8
一般
  6
CONTINUOUS
 62
     7
  0
LINE
  5
30D
330
A
100
AcDbEntity
  8
一般
  6
CONTINUOUS
 62
     7
100
AcDbLine
 10
-79000.0
 20
-95200.0
 30
0.0
 11
-69000.0
 21
-95200.0
 31
0.0
  0
LINE
  5
30E
330
A
100
AcDbEntity
  8
一般
  6
CONTINUOUS
 62
     7
100
AcDbLine
 10
-79000.0
 20
-94700.0
 30
0.0
 11
-69000.0
 21
-94700.0
 31
0.0
  0
LINE
  5
30F
330
A
100
AcDbEntity
  8
一般
  6
CONTINUOUS
 62
     7
100
AcDbLine
 10
-79000.0
 20
-95700.0
 30
0.0
 11
-69000.0
 21
-95700.0
 31
0.0
  0
INSERT
  5
310
330
A
100
AcDbEntity
  8
一般
 62
     7
100
AcDbBlockReference
  2
グル_プ
 10
0.0
 20
0.0
 30
0.0
  0
MTEXT
  5
311
330
A
100
AcDbEntity
  8
一般
 62
     7
100
AcDbMText
 10
-90739.59952526623
 20
-90568.7984496124
 30
0.0
 40
2406.201550387597
 41
0.0
 71
     1
 72
     1
  1
0
  7
OSAKA
1001
ACAD
1000
MTEXTBEGIN
1070
    73
1070
     1
1070
    44
1040
1.12873497857409
1070
    74
1070
     0
1000
MTEXTEND
  0
MTEXT
  5
312
330
A
100
AcDbEntity
  8
一般
 62
     7
100
AcDbMText
 10
-80039.59952526622
 20
-90568.7984496124
 30
0.0
 40
2406.201550387597
 41
0.0
 71
     1
 72
     1
  1
10
  7
OSAKA
1001
ACAD
1000
MTEXTBEGIN
1070
    73
1070
     1
1070
    44
1040
1.12873497857409
1070
    74
1070
     0
1000
MTEXTEND
  0
MTEXT
  5
313
330
A
100
AcDbEntity
  8
一般
 62
     7
100
AcDbMText
 10
-51439.59952526623
 20
-90568.7984496124
 30
0.0
 40
2406.201550387597
 41
0.0
 71
     1
 72
     1
  1
40m
  7
OSAKA
1001
ACAD
1000
MTEXTBEGIN
1070
    73
1070
     1
1070
    44
1040
1.12873497857409
1070
    74
1070
     0
1000
MTEXTEND
  0
ENDSEC
  0
SECTION
  2
OBJECTS
  0
DICTIONARY
  5
19
330
0
100
AcDbDictionary
  3
ACAD_GROUP
350
1A
  3
ACAD_MLINESTYLE
350
1B
  3
ACAD_LAYOUT
350
1E
  3
ACAD_PLOTSETTINGS
350
22
  3
ACAD_PLOTSTYLENAME
350
1F
  3
ACAD_WIPEOUT_VARS
350
23
  3
ACDBHEADERROUNDTRIPXREC
350
31C
  0
DICTIONARY
  5
33D
330
A
100
AcDbDictionary
280
     1
  3
ACAD_LAYOUTSELFREF
360
33E
  0
DICTIONARY
  5
33F
330
B
100
AcDbDictionary
280
     1
  3
ACAD_LAYOUTSELFREF
360
340
  0
DICTIONARY
  5
1A
102
{ACAD_REACTORS
330
19
102
}
330
19
100
AcDbDictionary
  0
DICTIONARY
  5
1B
102
{ACAD_REACTORS
330
19
102
}
330
19
100
AcDbDictionary
  3
STANDARD
350
1C
  0
DICTIONARY
  5
1E
102
{ACAD_REACTORS
330
19
102
}
330
19
100
AcDbDictionary
  0
DICTIONARY
  5
22
102
{ACAD_REACTORS
330
19
102
}
330
19
100
AcDbDictionary
  0
ACDBDICTIONARYWDFLT
  5
1F
102
{ACAD_REACTORS
330
19
102
}
330
19
100
AcDbDictionary
281
     1
  3
Normal
350
1D
100
AcDbDictionaryWithDefault
340
1D
  0
ACAD_PROXY_OBJECT_WRAPPER
  5
23
330
19
100
AcDbWipeoutVariables
 70
     0
1001
ACAD
1000
AcadProxyRoundTripData
1071
      521
1071
   393239
1070
     1
  0
DICTIONARY
  5
31C
102
{ACAD_REACTORS
330
19
102
}
330
19
100
AcDbDictionary
  3
TSTACKALIGN
350
31D
  3
TSTACKSIZE
350
31E
  3
HYPERLINKBASE
350
31F
  3
STYLESHEET
350
320
  3
LAYOUTDICT
350
321
  3
PLOTSETDICT
350
322
  3
PLOTSTYLNAMDICT
350
323
  3
LWETCUNION
350
324
  3
INSUNITS
350
325
  3
CEPSNTYPE
350
326
  3
FINGERPRINTGUID
350
327
  3
VERSIONGUID
350
328
  3
PSVPSCALE
350
329
  3
DIMSTYLEDATA
350
32A
  3
PUCSORTHOREF
350
32B
  3
PUCSORTHOVIEW
350
32C
  3
PUCSBASE
350
32D
  3
PUCSORGTOP
350
32E
  3
PUCSORGBOTTOM
350
32F
  3
PUCSORGLEFT
350
330
  3
PUCSORGRIGHT
350
331
  3
PUCSORGFRONT
350
332
  3
PUCSORGBACK
350
333
  3
UCSORTHOREF
350
334
  3
UCSORTHOVIEW
350
335
  3
UCSBASE
350
336
  3
UCSORGTOP
350
337
  3
UCSORGBOTTOM
350
338
  3
UCSORGLEFT
350
339
  3
UCSORGRIGHT
350
33A
  3
UCSORGFRONT
350
33B
  3
UCSORGBACK
350
33C
  0
XRECORD
  5
33E
102
{ACAD_REACTORS
330
33D
102
}
330
33D
100
AcDbXrecord
340
A
  0
XRECORD
  5
340
102
{ACAD_REACTORS
330
33F
102
}
330
33F
100
AcDbXrecord
340
B
  0
MLINESTYLE
  5
1C
102
{ACAD_REACTORS
330
1B
102
}
330
1B
100
AcDbMlineStyle
  2
STANDARD
 70
     0
  3

 62
     0
 51
90.0
 52
90.0
 71
     2
 49
0.5
 62
   256
  6
BYLAYER
 49
-0.5
 62
   256
  6
BYLAYER
  0
ACDBPLACEHOLDER
  5
1D
102
{ACAD_REACTORS
330
1F
102
}
330
1F
100
AcDbPlaceHolder
280
     0
  0
XRECORD
  5
31D
102
{ACAD_REACTORS
330
31C
102
}
330
31C
100
AcDbXrecord
 90
        1
  0
XRECORD
  5
31E
102
{ACAD_REACTORS
330
31C
102
}
330
31C
100
AcDbXrecord
 90
       70
  0
XRECORD
  5
31F
102
{ACAD_REACTORS
330
31C
102
}
330
31C
100
AcDbXrecord
  1

  0
XRECORD
  5
320
102
{ACAD_REACTORS
330
31C
102
}
330
31C
100
AcDbXrecord
  1

  0
XRECORD
  5
321
102
{ACAD_REACTORS
330
31C
102
}
330
31C
100
AcDbXrecord
340
1E
  0
XRECORD
  5
322
102
{ACAD_REACTORS
330
31C
102
}
330
31C
100
AcDbXrecord
340
22
  0
XRECORD
  5
323
102
{ACAD_REACTORS
330
31C
102
}
330
31C
100
AcDbXrecord
340
1F
  0
XRECORD
  5
324
102
{ACAD_REACTORS
330
31C
102
}
330
31C
100
AcDbXrecord
 90
    10240
  0
XRECORD
  5
325
102
{ACAD_REACTORS
330
31C
102
}
330
31C
100
AcDbXrecord
 90
        4
  0
XRECORD
  5
326
102
{ACAD_REACTORS
330
31C
102
}
330
31C
100
AcDbXrecord
 90
        0
  0
XRECORD
  5
327
102
{ACAD_REACTORS
330
31C
102
}
330
31C
100
AcDbXrecord
  1

  0
XRECORD
  5
328
102
{ACAD_REACTORS
330
31C
102
}
330
31C
100
AcDbXrecord
  1
{24E5AA2D-81DE-473D-8F3A-5A0D5DB90088}
  0
XRECORD
  5
329
102
{ACAD_REACTORS
330
31C
102
}
330
31C
100
AcDbXrecord
 40
0.0
  0
XRECORD
  5
32A
102
{ACAD_REACTORS
330
31C
102
}
330
31C
100
AcDbXrecord
1000
DSTYLE
1002
{
1070
   278
 70
     0
1070
   371
 70
     0
1070
   372
 70
     0
1002
}
  0
XRECORD
  5
32B
102
{ACAD_REACTORS
330
31C
102
}
330
31C
100
AcDbXrecord
340
0
  0
XRECORD
  5
32C
102
{ACAD_REACTORS
330
31C
102
}
330
31C
100
AcDbXrecord
 70
     0
  0
XRECORD
  5
32D
102
{ACAD_REACTORS
330
31C
102
}
330
31C
100
AcDbXrecord
340
0
  0
XRECORD
  5
32E
102
{ACAD_REACTORS
330
31C
102
}
330
31C
100
AcDbXrecord
 10
0.0
 20
0.0
 30
0.0
  0
XRECORD
  5
32F
102
{ACAD_REACTORS
330
31C
102
}
330
31C
100
AcDbXrecord
 10
0.0
 20
0.0
 30
0.0
  0
XRECORD
  5
330
102
{ACAD_REACTORS
330
31C
102
}
330
31C
100
AcDbXrecord
 10
0.0
 20
0.0
 30
0.0
  0
XRECORD
  5
331
102
{ACAD_REACTORS
330
31C
102
}
330
31C
100
AcDbXrecord
 10
0.0
 20
0.0
 30
0.0
  0
XRECORD
  5
332
102
{ACAD_REACTORS
330
31C
102
}
330
31C
100
AcDbXrecord
 10
0.0
 20
0.0
 30
0.0
  0
XRECORD
  5
333
102
{ACAD_REACTORS
330
31C
102
}
330
31C
100
AcDbXrecord
 10
0.0
 20
0.0
 30
0.0
  0
XRECORD
  5
334
102
{ACAD_REACTORS
330
31C
102
}
330
31C
100
AcDbXrecord
340
0
  0
XRECORD
  5
335
102
{ACAD_REACTORS
330
31C
102
}
330
31C
100
AcDbXrecord
 70
     0
  0
XRECORD
  5
336
102
{ACAD_REACTORS
330
31C
102
}
330
31C
100
AcDbXrecord
340
0
  0
XRECORD
  5
337
102
{ACAD_REACTORS
330
31C
102
}
330
31C
100
AcDbXrecord
 10
0.0
 20
0.0
 30
0.0
  0
XRECORD
  5
338
102
{ACAD_REACTORS
330
31C
102
}
330
31C
100
AcDbXrecord
 10
0.0
 20
0.0
 30
0.0
  0
XRECORD
  5
339
102
{ACAD_REACTORS
330
31C
102
}
330
31C
100
AcDbXrecord
 10
0.0
 20
0.0
 30
0.0
  0
XRECORD
  5
33A
102
{ACAD_REACTORS
330
31C
102
}
330
31C
100
AcDbXrecord
 10
0.0
 20
0.0
 30
0.0
  0
XRECORD
  5
33B
102
{ACAD_REACTORS
330
31C
102
}
330
31C
100
AcDbXrecord
 10
0.0
 20
0.0
 30
0.0
  0
XRECORD
  5
33C
102
{ACAD_REACTORS
330
31C
102
}
330
31C
100
AcDbXrecord
 10
0.0
 20
0.0
 30
0.0
  0
ENDSEC
  0
EOF
