  0
SECTION
  2
HEADER
  9
$ACADVER
  1
AC1009
  9
$INSBASE
 10
0
 20
0
 30
0
  9
$EXTMIN
 10
0
 20
0
  9
$EXTMAX
 10
168000
 20
118800
  9
$LIMMIN
 10
0
 20
0
  9
$LIMMAX
 10
168000
 20
118800
  9
$LTSCALE
 40
400
  0
ENDSEC
  0
SECTION
  2
TABLES
  0
TABLE
  2
LTYPE
 70
     9
  0
LTYPE
  2
CONTINUOUS
 70
    64
  3
実線
 72
    65
 73
     0
 40
0.0
  0
LTYPE
  2
DASHED1
 70
    64
  3
--  --  --  --  --  --  --  --  
 72
    65
 73
     2
 40
2.5
 49
1.25
 49
-1.25
  0
LTYPE
  2
DASHED2
 70
    64
  3
----    ----    ----    ----    
 72
    65
 73
     2
 40
5.0
 49
2.5
 49
-2.5
  0
LTYPE
  2
DASHED3
 70
    64
  3
------  ------  ------  ------  
 72
    65
 73
     2
 40
5.0
 49
3.75
 49
-1.25
  0
LTYPE
  2
CENTER1
 70
    64
  3
----- - ----- - ----- - ----- - 
 72
    65
 73
     4
 40
10.0
 49
6.25
 49
-1.25
 49
1.25
 49
-1.25
  0
LTYPE
  2
CENTER2
 70
    64
  3
----------  --  ----------  --  
 72
    65
 73
     4
 40
20.0
 49
12.5
 49
-2.5
 49
2.5
 49
-2.5
  0
LTYPE
  2
PHANTOM1
 70
    64
  3
--- - - --- - - --- - - --- - - 
 72
    65
 73
     6
 40
10.0
 49
3.25
 49
-1.25
 49
1.25
 49
-1.25
 49
1.25
 49
-1.25
  0
LTYPE
  2
PHANTOM2
 70
    64
  3
--------  -  -  --------  -  -  
 72
    65
 73
     6
 40
20.0
 49
10.0
 49
-2.5
 49
1.25
 49
-2.5
 49
1.25
 49
-2.5
  0
LTYPE
  2
DOT
 70
    64
  3
-   -   -   -   -   -   -   -   
 72
    65
 73
     2
 40
2.5
 49
0.625
 49
-1.875
  0
LTYPE
  2
DUMMY
 70
    64
  3
ダミー
 72
    65
 73
     0
 40
0.0
  0
LTYPE
  2
RAND1
 70
    64
  3
ランダム線1
 72
    65
 73
     4
 40
10.0
 49
1.0
 49
-2.0
 49
3.0
 49
-4.0
  0
LTYPE
  2
RAND2
 70
    64
  3
ランダム線2
 72
    65
 73
     4
 40
14.0
 49
2.0
 49
-3.0
 49
4.0
 49
-5.0
  0
LTYPE
  2
RAND3
 70
    64
  3
ランダム線3
 72
    65
 73
     4
 40
18.0
 49
3.0
 49
-4.0
 49
5.0
 49
-6.0
  0
LTYPE
  2
RAND4
 70
    64
  3
ランダム線4
 72
    65
 73
     4
 40
22.0
 49
4.0
 49
-5.0
 49
6.0
 49
-7.0
  0
LTYPE
  2
RAND5
 70
    64
  3
ランダム線5
 72
    65
 73
     4
 40
26.0
 49
5.0
 49
-6.0
 49
7.0
 49
-8.0
  0
LTYPE
  2
LONG1
 70
    64
  3
----------  --  ----------  --  
 72
    65
 73
     4
 40
40.0
 49
32.5
 49
-2.5
 49
2.5
 49
-2.5
  0
LTYPE
  2
LONG2
 70
    64
  3
--------  -  -  --------  -  -  
 72
    65
 73
     6
 40
40.0
 49
30.0
 49
-2.5
 49
1.25
 49
-2.5
 49
1.25
 49
-2.5
  0
LTYPE
  2
LONG3
 70
    64
  3
+++++++++++++++..+++++++++++++++
 72
    65
 73
     2
 40
40.0
 49
37.5
 49
-2.5
  0
LTYPE
  2
LONG4
 70
    64
  3
+++++++++++++++..+++++++++++++++
 72
    65
 73
     2
 40
80.0
 49
75.0
 49
-5.0
  0
LTYPE
  2
LONG5
 70
    64
  3
----------  --  ----------  --  
 72
    65
 73
     4
 40
60.0
 49
37.5
 49
-7.5
 49
7.5
 49
-7.5
  0
LTYPE
  2
dashed
 70
   64
  3
-------   -------------   ------
 72
   65
 73
    2
 40
7.5
 49
6
 49
-1.5
  0
LTYPE
  2
dashed_spaced
 70
   64
  3
----        --------        ----
 72
   65
 73
    2
 40
12
 49
6
 49
-6
  0
LTYPE
  2
long_dashed_dotted
 70
   64
  3
------------- --- --------------
 72
   65
 73
    4
 40
15.25
 49
12
 49
-1.5
 49
0.25
 49
-1.5
  0
LTYPE
  2
long_dashed_double-dotted
 70
   64
  3
----------- --- --- ------------
 72
   65
 73
    6
 40
17
 49
12
 49
-1.5
 49
0.25
 49
-1.5
 49
0.25
 49
-1.5
  0
LTYPE
  2
long_dashed_triplicate-dotted
 70
   64
  3
--------- --- --- --- ----------
 72
   65
 73
    8
 40
18.75
 49
12
 49
-1.5
 49
0.25
 49
-1.5
 49
0.25
 49
-1.5
 49
0.25
 49
-1.5
  0
LTYPE
  2
dotted
 70
   64
  3
   -       -       -       -    
 72
   65
 73
    2
 40
1.75
 49
0.25
 49
-1.5
  0
LTYPE
  2
chain
 70
   64
  3
-------------- -- --------------
 72
   65
 73
    4
 40
18.5
 49
12
 49
-1.5
 49
3.5
 49
-1.5
  0
LTYPE
  2
chain_double_dash
 70
   64
  3
------------ -- -- -------------
 72
   65
 73
    6
 40
23.5
 49
12
 49
-1.5
 49
3.5
 49
-1.5
 49
3.5
 49
-1.5
  0
LTYPE
  2
dashed_dotted
 70
   64
  3
-----------     -     ----------
 72
   65
 73
    4
 40
9.25
 49
6
 49
-1.5
 49
0.25
 49
-1.5
  0
LTYPE
  2
double-dashed_dotted
 70
   64
  3
------   -----------   -   -----
 72
   65
 73
    6
 40
16.75
 49
6
 49
-1.5
 49
6
 49
-1.5
 49
0.25
 49
-1.5
  0
LTYPE
  2
dashed_double-dotted
 70
   64
  3
---------    -    -    ---------
 72
   65
 73
    6
 40
11
 49
6
 49
-1.5
 49
0.25
 49
-1.5
 49
0.25
 49
-1.5
  0
LTYPE
  2
double-dashed_double-dotted
 70
   64
  3
-----   ---------   -   -   ----
 72
   65
 73
    8
 40
18.5
 49
6
 49
-1.5
 49
6
 49
-1.5
 49
0.25
 49
-1.5
 49
0.25
 49
-1.5
  0
LTYPE
  2
dashed_triplicate-dotted
 70
   64
  3
-------    -    -    -    ------
 72
   65
 73
    8
 40
12.75
 49
6
 49
-1.5
 49
0.25
 49
-1.5
 49
0.25
 49
-1.5
 49
0.25
 49
-1.5
  0
LTYPE
  2
double-dashed_triplicate-dotted
 70
   64
  3
-----  ---------  -  -  -  -----
 72
   65
 73
   10
 40
20.25
 49
6
 49
-1.5
 49
6
 49
-1.5
 49
0.25
 49
-1.5
 49
0.25
 49
-1.5
 49
0.25
 49
-1.5
  0
LTYPE
  2
undefined
 70
   64
  3
--------------------------------
 72
   65
 73
    0
 40
0
  0
ENDTAB
  0
TABLE
  2
STYLE
  5
3
100
AcDbSymbolTable
 70
     1
  0
STYLE
  5
10
100
AcDbSymbolTableRecord
100
AcDbTextStyleTableRecord
  2
STANDARD
 70
     0
 40
0.0
 41
1.0
 50
0.0
 71
     0
 42
0.2
  3
txt
  4
bigfont.shx
  0
STYLE
  5
26
100
AcDbSymbolTableRecord
100
AcDbTextStyleTableRecord
  2
TATEGAKI
 70
    68
 40
0.0
 41
1.0
 50
0.0
 71
     0
 42
1.0
  3
txt
  4
bigfont.shx
  0
ENDTAB
  0
TABLE
  2
LAYER
 70
   14
  0
LAYER
  2
_0-0_
 70
   64
 62
    7
  6
CONTINUOUS
  0
LAYER
  2
_0-1_
 70
   64
 62
    7
  6
CONTINUOUS
  0
LAYER
  2
_0-4_
 70
   64
 62
    7
  6
CONTINUOUS
  0
LAYER
  2
_0-5_
 70
   64
 62
    7
  6
CONTINUOUS
  0
LAYER
  2
_0-7_
 70
   64
 62
    7
  6
CONTINUOUS
  0
LAYER
  2
_0-8_
 70
   64
 62
    7
  6
CONTINUOUS
  0
LAYER
  2
_0-c_
 70
   64
 62
    7
  6
CONTINUOUS
  0
LAYER
  2
_0-f_
 70
   64
 62
    7
  6
CONTINUOUS
  0
LAYER
  2
_7-0_
 70
   64
 62
    7
  6
CONTINUOUS
  0
LAYER
  2
_7-4_
 70
   64
 62
    7
  6
CONTINUOUS
  0
LAYER
  2
_7-5_
 70
   64
 62
    7
  6
CONTINUOUS
  0
LAYER
  2
_7-8_
 70
   64
 62
    7
  6
CONTINUOUS
  0
LAYER
  2
_7-c_
 70
   64
 62
    7
  6
CONTINUOUS
  0
LAYER
  2
ADD_LINE
 70
   64
 62
    7
  6
CONTINUOUS
  0
ENDTAB
  0
ENDSEC
  0
SECTION
  2
BLOCKS
  0
ENDSEC
  0
SECTION
  2
ENTITIES
  0
LINE
  8
_7-0_
  6
CONTINUOUS
 62
    7
 10
30127.997867862086
 20
93418.978473020237
 11
7841.2920121143088
 21
111633.02192447575
  0
LINE
  8
_0-c_
  6
CONTINUOUS
 62
    7
 10
51967.741935483864
 20
5685.4838709677442
 11
51967.741935483864
 21
32985.483870967742
  0
LINE
  8
ADD_LINE
  6
DOT
 62
    9
 10
159677.4193548387
 20
7335.4838709677442
 11
16064.516129032269
 21
7335.4838709677442
  0
LINE
  8
ADD_LINE
  6
DOT
 62
    9
 10
159677.4193548387
 20
8835.4838709677442
 11
16064.516129032269
 21
8835.4838709677442
  0
LINE
  8
ADD_LINE
  6
DOT
 62
    9
 10
159677.4193548387
 20
10335.483870967744
 11
16064.516129032269
 21
10335.483870967744
  0
LINE
  8
ADD_LINE
  6
DOT
 62
    9
 10
159677.4193548387
 20
11835.483870967744
 11
16064.516129032269
 21
11835.483870967744
  0
LINE
  8
ADD_LINE
  6
DOT
 62
    9
 10
159677.4193548387
 20
13335.483870967744
 11
16064.516129032269
 21
13335.483870967744
  0
LINE
  8
ADD_LINE
  6
DOT
 62
    9
 10
159677.4193548387
 20
14835.483870967744
 11
16064.516129032269
 21
14835.483870967744
  0
LINE
  8
ADD_LINE
  6
DOT
 62
    9
 10
159677.4193548387
 20
16335.483870967744
 11
16064.516129032269
 21
16335.483870967744
  0
LINE
  8
ADD_LINE
  6
DOT
 62
    9
 10
159677.4193548387
 20
17835.483870967742
 11
16064.516129032269
 21
17835.483870967742
  0
LINE
  8
ADD_LINE
  6
DOT
 62
    9
 10
159677.4193548387
 20
19335.483870967742
 11
16064.516129032269
 21
19335.483870967742
  0
LINE
  8
ADD_LINE
  6
DOT
 62
    9
 10
159677.4193548387
 20
20835.483870967742
 11
16064.516129032269
 21
20835.483870967742
  0
LINE
  8
ADD_LINE
  6
DOT
 62
    9
 10
159677.4193548387
 20
22335.483870967742
 11
16064.516129032269
 21
22335.483870967742
  0
LINE
  8
ADD_LINE
  6
DOT
 62
    9
 10
159677.4193548387
 20
5835.4838709677442
 11
16064.516129032269
 21
5835.4838709677442
  0
LINE
  8
ADD_LINE
  6
DOT
 62
    9
 10
17564.516129032258
 20
5835.4838709677442
 11
17564.516129032258
 21
32835.483870967742
  0
LINE
  8
ADD_LINE
  6
DOT
 62
    4
 10
25935.483870967731
 20
5835.4838709677442
 11
25935.483870967731
 21
32835.483870967742
  0
LINE
  8
ADD_LINE
  6
DOT
 62
    4
 10
35806.451612903213
 20
5835.4838709677442
 11
35806.451612903213
 21
32835.483870967742
  0
LINE
  8
_0-c_
  6
CONTINUOUS
 62
    7
 10
159677.4193548387
 20
5685.4838709677442
 11
16064.516129032269
 21
5685.4838709677442
  0
LINE
  8
_0-c_
  6
CONTINUOUS
 62
    7
 10
16064.516129032256
 20
5685.4838709677442
 11
16064.516129032256
 21
32985.483870967742
  0
TEXT
  8
_0-5_
 62
    7
 10
16964.516129032258
 20
28335.483870967742
 40
1200
 41
1
 50
0
  1
イ
  0
TEXT
  8
_0-5_
 62
    7
 10
16964.516129032258
 20
26835.483870967742
 40
1200
 41
1
 50
0
  1
ロ
  0
TEXT
  8
_0-5_
 62
    7
 10
16964.516129032258
 20
25335.483870967742
 40
1200
 41
1
 50
0
  1
ハ
  0
TEXT
  8
_0-5_
 62
    7
 10
16964.516129032258
 20
23835.483870967742
 40
1200
 41
1
 50
0
  1
二
  0
CIRCLE
  8
_0-5_
  6
CONTINUOUS
 62
    7
 10
25935.483870967731
 20
32085.483870967742
 40
700
  0
TEXT
  8
_0-5_
 62
    4
 10
16564.516129032258
 20
31335.483870967742
 40
1000
 41
1
 50
0
  1
地番
  0
TEXT
  8
_0-5_
 62
    4
 10
16564.516129032258
 20
29835.483870967742
 40
1000
 41
1
 50
0
  1
符号
  0
TEXT
  8
_0-5_
 62
    4
 10
22935.483870967731
 20
29835.483870967742
 40
1000
 41
1
 50
0
  1
底　辺
  0
TEXT
  8
_0-5_
 62
    4
 10
32806.451612903213
 20
29835.483870967742
 40
1000
 41
1
 50
0
  1
高　さ
  0
TEXT
  8
_0-5_
 62
    7
 10
25335.483870967731
 20
31485.483870967742
 40
1200
 41
1
 50
0
  1
Ａ
  0
TEXT
  8
_0-5_
 62
    7
 10
28937.742515056845
 20
31449.780390647971
 40
1200
 41
1
 50
0
  1
48-8
  0
TEXT
  8
_0-5_
 62
    7
 10
16964.516129032258
 20
22335.483870967742
 40
1200
 41
1
 50
0
  1
ホ
  0
TEXT
  8
_0-5_
 62
    7
 10
16964.516129032258
 20
20835.483870967742
 40
1200
 41
1
 50
0
  1
ヘ
  0
TEXT
  8
_0-5_
 62
    7
 10
16964.516129032258
 20
19335.483870967742
 40
1200
 41
1
 50
0
  1
ト
  0
TEXT
  8
_0-5_
 62
    7
 10
16964.516129032258
 20
17835.483870967742
 40
1200
 41
1
 50
0
  1
チ
  0
TEXT
  8
_0-5_
 62
    7
 10
16964.516129032258
 20
16335.483870967744
 40
1200
 41
1
 50
0
  1
リ
  0
TEXT
  8
_0-5_
 62
    7
 10
16964.516129032258
 20
14835.483870967744
 40
1200
 41
1
 50
0
  1
ヌ
  0
TEXT
  8
_0-5_
 62
    7
 10
16964.516129032258
 20
13335.483870967744
 40
1200
 41
1
 50
0
  1
ル
  0
TEXT
  8
_0-5_
 62
    4
 10
32806.451612903213
 20
11835.483870967744
 40
1000
 41
1
 50
0
  1
合　計
  0
TEXT
  8
_0-5_
 62
    4
 10
32806.451612903213
 20
10335.483870967744
 40
1000
 41
1
 50
0
  1
面　積
  0
TEXT
  8
_0-5_
 62
    4
 10
32806.451612903213
 20
8835.4838709677442
 40
1000
 41
1
 50
0
  1
地　積
  0
TEXT
  8
_0-5_
 62
    7
 10
52867.741935483857
 20
17835.483870967742
 40
1200
 41
1
 50
0
  1
イ
  0
TEXT
  8
_0-5_
 62
    7
 10
52867.741935483857
 20
16335.483870967744
 40
1200
 41
1
 50
0
  1
ロ
  0
TEXT
  8
_0-5_
 62
    7
 10
52867.741935483857
 20
14835.483870967744
 40
1200
 41
1
 50
0
  1
ハ
  0
TEXT
  8
_0-5_
 62
    7
 10
52867.741935483857
 20
13335.483870967744
 40
1200
 41
1
 50
0
  1
二
  0
CIRCLE
  8
_0-5_
  6
CONTINUOUS
 62
    7
 10
61838.709677419334
 20
21585.483870967742
 40
700
  0
TEXT
  8
_0-5_
 62
    7
 10
88770.96774193547
 20
17835.483870967742
 40
1200
 41
1
 50
0
  1
イ
  0
TEXT
  8
_0-5_
 62
    7
 10
88770.96774193547
 20
16335.483870967744
 40
1200
 41
1
 50
0
  1
ロ
  0
TEXT
  8
_0-5_
 62
    7
 10
88770.96774193547
 20
14835.483870967744
 40
1200
 41
1
 50
0
  1
ハ
  0
CIRCLE
  8
_0-5_
  6
CONTINUOUS
 62
    7
 10
97741.935483870941
 20
21585.483870967742
 40
700
  0
TEXT
  8
_0-5_
 62
    7
 10
124674.19354838708
 20
17835.483870967742
 40
1200
 41
1
 50
0
  1
イ
  0
TEXT
  8
_0-5_
 62
    7
 10
124674.19354838708
 20
16335.483870967744
 40
1200
 41
1
 50
0
  1
ロ
  0
TEXT
  8
_0-5_
 62
    7
 10
124674.19354838708
 20
14835.483870967744
 40
1200
 41
1
 50
0
  1
ハ
  0
TEXT
  8
_0-5_
 62
    7
 10
124674.19354838708
 20
13335.483870967744
 40
1200
 41
1
 50
0
  1
二
  0
CIRCLE
  8
_0-5_
  6
CONTINUOUS
 62
    7
 10
133645.16129032258
 20
21585.483870967742
 40
700
  0
TEXT
  8
_0-5_
 62
    4
 10
52467.741935483864
 20
20835.483870967742
 40
1000
 41
1
 50
0
  1
地番
  0
TEXT
  8
_0-5_
 62
    4
 10
52467.741935483864
 20
19335.483870967742
 40
1000
 41
1
 50
0
  1
符号
  0
TEXT
  8
_0-5_
 62
    4
 10
88370.96774193547
 20
20835.483870967742
 40
1000
 41
1
 50
0
  1
地番
  0
TEXT
  8
_0-5_
 62
    4
 10
88370.96774193547
 20
19335.483870967742
 40
1000
 41
1
 50
0
  1
符号
  0
TEXT
  8
_0-5_
 62
    4
 10
124274.19354838708
 20
20835.483870967742
 40
1000
 41
1
 50
0
  1
地番
  0
TEXT
  8
_0-5_
 62
    4
 10
124274.19354838708
 20
19335.483870967742
 40
1000
 41
1
 50
0
  1
符号
  0
TEXT
  8
_0-5_
 62
    4
 10
130645.16129032256
 20
19335.483870967742
 40
1000
 41
1
 50
0
  1
底　辺
  0
TEXT
  8
_0-5_
 62
    4
 10
140516.12903225806
 20
19335.483870967742
 40
1000
 41
1
 50
0
  1
高　さ
  0
TEXT
  8
_0-5_
 62
    4
 10
94741.935483870955
 20
19335.483870967742
 40
1000
 41
1
 50
0
  1
底　辺
  0
TEXT
  8
_0-5_
 62
    4
 10
104612.90322580644
 20
19335.483870967742
 40
1000
 41
1
 50
0
  1
高　さ
  0
TEXT
  8
_0-5_
 62
    4
 10
58838.709677419341
 20
19335.483870967742
 40
1000
 41
1
 50
0
  1
底　辺
  0
TEXT
  8
_0-5_
 62
    4
 10
68709.677419354834
 20
19335.483870967742
 40
1000
 41
1
 50
0
  1
高　さ
  0
TEXT
  8
_0-5_
 62
    7
 10
61238.709677419334
 20
20985.483870967742
 40
1200
 41
1
 50
0
  1
Ａ
  0
TEXT
  8
_0-5_
 62
    7
 10
64838.709677419334
 20
20985.483870967742
 40
1200
 41
1
 50
0
  1
1-15
  0
TEXT
  8
_0-5_
 62
    7
 10
97141.935483870941
 20
20985.483870967742
 40
1200
 41
1
 50
0
  1
Ｂ
  0
TEXT
  8
_0-5_
 62
    7
 10
100741.93548387094
 20
20985.483870967742
 40
1200
 41
1
 50
0
  1
48-9
  0
TEXT
  8
_0-5_
 62
    7
 10
136645.16129032258
 20
20985.483870967742
 40
1200
 41
1
 50
0
  1
1-16
  0
TEXT
  8
_0-5_
 62
    7
 10
133045.16129032258
 20
20985.483870967742
 40
1200
 41
1
 50
0
  1
Ｂ
  0
TEXT
  8
_0-5_
 62
    4
 10
68709.677419354834
 20
11835.483870967744
 40
1000
 41
1
 50
0
  1
合　計
  0
TEXT
  8
_0-5_
 62
    4
 10
68709.677419354834
 20
10335.483870967744
 40
1000
 41
1
 50
0
  1
面　積
  0
TEXT
  8
_0-5_
 62
    4
 10
68709.677419354834
 20
8835.4838709677442
 40
1000
 41
1
 50
0
  1
地　積
  0
TEXT
  8
_0-5_
 62
    4
 10
104612.90322580644
 20
13335.483870967744
 40
1000
 41
1
 50
0
  1
合　計
  0
TEXT
  8
_0-5_
 62
    4
 10
104612.90322580644
 20
11835.483870967744
 40
1000
 41
1
 50
0
  1
面　積
  0
TEXT
  8
_0-5_
 62
    4
 10
104612.90322580644
 20
10335.483870967744
 40
1000
 41
1
 50
0
  1
地　積
  0
TEXT
  8
_0-5_
 62
    4
 10
140516.12903225806
 20
11835.483870967744
 40
1000
 41
1
 50
0
  1
合　計
  0
TEXT
  8
_0-5_
 62
    4
 10
140516.12903225806
 20
10335.483870967744
 40
1000
 41
1
 50
0
  1
面　積
  0
TEXT
  8
_0-5_
 62
    4
 10
140516.12903225806
 20
8835.4838709677442
 40
1000
 41
1
 50
0
  1
地　積
  0
LINE
  8
_0-c_
  6
CONTINUOUS
 62
    7
 10
51967.741935483878
 20
32985.483870967742
 11
16064.516129032269
 21
32985.483870967742
  0
LINE
  8
_0-c_
  6
CONTINUOUS
 62
    7
 10
159677.4193548387
 20
22485.483870967742
 11
51967.741935483878
 21
22485.483870967742
  0
LINE
  8
ADD_LINE
  6
DOT
 62
    9
 10
53467.741935483864
 20
5835.4838709677442
 11
53467.741935483864
 21
22485.483870967742
  0
LINE
  8
_0-c_
  6
CONTINUOUS
 62
    7
 10
159677.4193548387
 20
5685.4838709677442
 11
159677.4193548387
 21
22485.483870967742
  0
LINE
  8
ADD_LINE
  6
DOT
 62
    9
 10
89370.96774193547
 20
5835.4838709677442
 11
89370.96774193547
 21
22485.483870967742
  0
LINE
  8
ADD_LINE
  6
DOT
 62
    9
 10
125274.19354838708
 20
5835.4838709677442
 11
125274.19354838708
 21
22485.483870967742
  0
LINE
  8
ADD_LINE
  6
DOT
 62
    4
 10
61838.709677419341
 20
5835.4838709677442
 11
61838.709677419341
 21
22485.483870967742
  0
LINE
  8
ADD_LINE
  6
DOT
 62
    4
 10
71709.677419354834
 20
5835.4838709677442
 11
71709.677419354834
 21
22485.483870967742
  0
LINE
  8
ADD_LINE
  6
DOT
 62
    4
 10
97741.935483870955
 20
5835.4838709677442
 11
97741.935483870955
 21
22485.483870967742
  0
LINE
  8
ADD_LINE
  6
DOT
 62
    4
 10
107612.90322580644
 20
5835.4838709677442
 11
107612.90322580644
 21
22485.483870967742
  0
LINE
  8
ADD_LINE
  6
DOT
 62
    4
 10
133645.16129032258
 20
5835.4838709677442
 11
133645.16129032258
 21
22485.483870967742
  0
LINE
  8
ADD_LINE
  6
DOT
 62
    4
 10
143516.12903225806
 20
5835.4838709677442
 11
143516.12903225806
 21
22485.483870967742
  0
LINE
  8
_0-c_
  6
CONTINUOUS
 62
    7
 10
87870.96774193547
 20
5685.4838709677442
 11
87870.96774193547
 21
22485.483870967742
  0
LINE
  8
_0-c_
  6
CONTINUOUS
 62
    7
 10
123774.19354838708
 20
5685.4838709677442
 11
123774.19354838708
 21
22485.483870967742
  0
LINE
  8
_0-c_
  6
CONTINUOUS
 62
    7
 10
51967.741935483878
 20
31185.483870967742
 11
16064.516129032269
 21
31185.483870967742
  0
LINE
  8
_0-c_
  6
CONTINUOUS
 62
    7
 10
159677.4193548387
 20
20685.483870967742
 11
51967.741935483878
 21
20685.483870967742
  0
LINE
  8
_0-c_
  6
CONTINUOUS
 62
    4
 10
51967.741935483878
 20
29685.483870967742
 11
16064.516129032269
 21
29685.483870967742
  0
LINE
  8
_0-c_
  6
CONTINUOUS
 62
    4
 10
51967.741935483878
 20
28185.483870967742
 11
16064.516129032269
 21
28185.483870967742
  0
LINE
  8
_0-c_
  6
CONTINUOUS
 62
    4
 10
51967.741935483878
 20
26685.483870967742
 11
16064.516129032269
 21
26685.483870967742
  0
LINE
  8
_0-c_
  6
CONTINUOUS
 62
    4
 10
51967.741935483878
 20
25185.483870967742
 11
16064.516129032269
 21
25185.483870967742
  0
LINE
  8
_0-c_
  6
CONTINUOUS
 62
    4
 10
51967.741935483878
 20
23685.483870967742
 11
16064.516129032269
 21
23685.483870967742
  0
LINE
  8
_0-c_
  6
CONTINUOUS
 62
    4
 10
51967.741935483878
 20
22185.483870967742
 11
16064.516129032269
 21
22185.483870967742
  0
LINE
  8
_0-c_
  6
CONTINUOUS
 62
    4
 10
51967.741935483878
 20
20685.483870967742
 11
16064.516129032269
 21
20685.483870967742
  0
LINE
  8
_0-c_
  6
CONTINUOUS
 62
    4
 10
159677.4193548387
 20
19185.483870967742
 11
16064.516129032269
 21
19185.483870967742
  0
LINE
  8
_0-c_
  6
CONTINUOUS
 62
    4
 10
159677.4193548387
 20
17685.483870967742
 11
16064.516129032269
 21
17685.483870967742
  0
LINE
  8
_0-c_
  6
CONTINUOUS
 62
    4
 10
159677.4193548387
 20
16185.483870967744
 11
16064.516129032269
 21
16185.483870967744
  0
LINE
  8
_0-c_
  6
CONTINUOUS
 62
    4
 10
159677.4193548387
 20
14685.483870967744
 11
16064.516129032269
 21
14685.483870967744
  0
LINE
  8
_0-c_
  6
CONTINUOUS
 62
    4
 10
159677.4193548387
 20
13185.483870967744
 11
16064.516129032269
 21
13185.483870967744
  0
LINE
  8
_0-c_
  6
CONTINUOUS
 62
    4
 10
159677.4193548387
 20
11685.483870967744
 11
16064.516129032269
 21
11685.483870967744
  0
LINE
  8
_0-c_
  6
CONTINUOUS
 62
    4
 10
159677.4193548387
 20
10185.483870967744
 11
16064.516129032269
 21
10185.483870967744
  0
LINE
  8
_0-c_
  6
CONTINUOUS
 62
    4
 10
159677.4193548387
 20
8685.4838709677442
 11
16064.516129032269
 21
8685.4838709677442
  0
LINE
  8
_0-c_
  6
CONTINUOUS
 62
    4
 10
159677.4193548387
 20
7185.4838709677442
 11
16064.516129032269
 21
7185.4838709677442
  0
LINE
  8
_0-c_
  6
CONTINUOUS
 62
    4
 10
19064.516129032258
 20
5835.4838709677442
 11
19064.516129032258
 21
32835.483870967742
  0
LINE
  8
_0-c_
  6
CONTINUOUS
 62
    4
 10
28935.483870967731
 20
5835.4838709677442
 11
28935.483870967731
 21
31185.483870967742
  0
LINE
  8
_0-c_
  6
CONTINUOUS
 62
    4
 10
38806.451612903213
 20
5835.4838709677442
 11
38806.451612903213
 21
31185.483870967742
  0
LINE
  8
_0-c_
  6
CONTINUOUS
 62
    4
 10
54967.741935483864
 20
5835.4838709677442
 11
54967.741935483864
 21
22485.483870967742
  0
LINE
  8
_0-c_
  6
CONTINUOUS
 62
    4
 10
64838.709677419341
 20
5835.4838709677442
 11
64838.709677419341
 21
20685.483870967742
  0
LINE
  8
_0-c_
  6
CONTINUOUS
 62
    4
 10
74709.677419354834
 20
5835.4838709677442
 11
74709.677419354834
 21
20685.483870967742
  0
LINE
  8
_0-c_
  6
CONTINUOUS
 62
    4
 10
90870.96774193547
 20
5835.4838709677442
 11
90870.96774193547
 21
22485.483870967742
  0
LINE
  8
_0-c_
  6
CONTINUOUS
 62
    4
 10
100741.93548387096
 20
5835.4838709677442
 11
100741.93548387096
 21
20685.483870967742
  0
LINE
  8
_0-c_
  6
CONTINUOUS
 62
    4
 10
110612.90322580644
 20
5835.4838709677442
 11
110612.90322580644
 21
20685.483870967742
  0
LINE
  8
_0-c_
  6
CONTINUOUS
 62
    4
 10
126774.19354838708
 20
5835.4838709677442
 11
126774.19354838708
 21
22485.483870967742
  0
LINE
  8
_0-c_
  6
CONTINUOUS
 62
    4
 10
136645.16129032258
 20
5835.4838709677442
 11
136645.16129032258
 21
20685.483870967742
  0
LINE
  8
_0-c_
  6
CONTINUOUS
 62
    4
 10
146516.12903225806
 20
5835.4838709677442
 11
146516.12903225806
 21
20685.483870967742
  0
LINE
  8
ADD_LINE
  6
DOT
 62
    4
 10
155677.4193548387
 20
5785.4838709677442
 11
155677.4193548387
 21
22485.483870967742
  0
TEXT
  8
_0-4_
 62
    4
 10
151177.4193548387
 20
14835.483870967744
 40
1000
 41
1
 50
0
  1
50.270636
  0
TEXT
  8
_0-4_
 62
    4
 10
151177.4193548387
 20
13335.483870967744
 40
1000
 41
1
 50
0
  1
85.318677
  0
TEXT
  8
_0-4_
 62
    4
 10
150677.4193548387
 20
16335.483870967744
 40
1000
 41
1
 50
0
  1
282.547636
  0
TEXT
  8
_0-4_
 62
    4
 10
150677.4193548387
 20
11835.483870967744
 40
1000
 41
1
 50
0
  1
618.437649
  0
TEXT
  8
_0-4_
 62
    4
 10
150646.27620038649
 20
10370.715028987661
 40
1000
 41
1
 50
0
  1
309.2188245
  0
TEXT
  8
_0-5_
 62
    4
 10
151677.4193548387
 20
19335.483870967742
 40
1000
 41
1
 50
0
  1
倍積
  0
TEXT
  8
_0-4_
 62
    4
 10
150677.4193548387
 20
8835.4838709677442
 40
1000
 41
1
 50
0
  1
309.21　㎡
  0
TEXT
  8
_0-5_
 62
    4
 10
115774.19354838708
 20
19335.483870967742
 40
1000
 41
1
 50
0
  1
倍積
  0
LINE
  8
ADD_LINE
  6
DOT
 62
    4
 10
119774.19354838708
 20
5685.4838709677442
 11
119774.19354838708
 21
22485.483870967742
  0
LINE
  8
ADD_LINE
  6
DOT
 62
    4
 10
83870.96774193547
 20
5685.4838709677442
 11
83870.96774193547
 21
22485.483870967742
  0
LINE
  8
ADD_LINE
  6
DOT
 62
    4
 10
47967.741935483864
 20
5685.4838709677442
 11
47967.741935483864
 21
32985.483870967742
  0
TEXT
  8
_0-5_
 62
    4
 10
43967.741935483864
 20
29835.483870967742
 40
1000
 41
1
 50
0
  1
倍積
  0
TEXT
  8
_0-5_
 62
    4
 10
79870.96774193547
 20
19335.483870967742
 40
1000
 41
1
 50
0
  1
倍積
  0
TEXT
  8
_0-4_
 62
    4
 10
114774.19354838708
 20
11835.483870967744
 40
1000
 41
1
 50
0
  1
190.800411
  0
TEXT
  8
_0-4_
 62
    4
 10
114774.19354838708
 20
10335.483870967744
 40
1000
 41
1
 50
0
  1
190.80　㎡
  0
TEXT
  8
_0-4_
 62
    4
 10
78870.96774193547
 20
17835.483870967742
 40
1000
 41
1
 50
0
  1
210.017808
  0
TEXT
  8
_0-4_
 62
    4
 10
78870.96774193547
 20
16335.483870967744
 40
1000
 41
1
 50
0
  1
209.035264
  0
TEXT
  8
_0-4_
 62
    4
 10
78870.96774193547
 20
14835.483870967744
 40
1000
 41
1
 50
0
  1
610.478592
  0
TEXT
  8
_0-4_
 62
    4
 10
78870.96774193547
 20
13335.483870967744
 40
1000
 41
1
 50
0
  1
200.305440
  0
TEXT
  8
_0-4_
 62
    4
 10
78370.96774193547
 20
11835.483870967744
 40
1000
 41
1
 50
0
  1
1229.837104
  0
TEXT
  8
_0-4_
 62
    4
 10
78870.96774193547
 20
10335.483870967744
 40
1000
 41
1
 50
0
  1
614.918552
  0
TEXT
  8
_0-4_
 62
    4
 10
78870.96774193547
 20
8835.4838709677442
 40
1000
 41
1
 50
0
  1
614.91　㎡
  0
TEXT
  8
_0-4_
 62
    4
 10
42967.741935483864
 20
23835.483870967742
 40
1000
 41
1
 50
0
  1
537.886050
  0
TEXT
  8
_0-4_
 62
    4
 10
42967.741935483864
 20
22335.483870967742
 40
1000
 41
1
 50
0
  1
406.360240
  0
TEXT
  8
_0-4_
 62
    4
 10
42967.741935483864
 20
20835.483870967742
 40
1000
 41
1
 50
0
  1
533.687160
  0
TEXT
  8
_0-4_
 62
    4
 10
42967.741935483864
 20
19335.483870967742
 40
1000
 41
1
 50
0
  1
756.585610
  0
TEXT
  8
_0-4_
 62
    4
 10
42467.741935483864
 20
17835.483870967742
 40
1000
 41
1
 50
0
  1
1151.789760
  0
TEXT
  8
_0-4_
 62
    4
 10
42967.741935483864
 20
16335.483870967744
 40
1000
 41
1
 50
0
  1
225.649700
  0
TEXT
  8
_0-4_
 62
    4
 10
42967.741935483864
 20
14835.483870967744
 40
1000
 41
1
 50
0
  1
570.017165
  0
TEXT
  8
_0-4_
 62
    4
 10
43467.741935483864
 20
13335.483870967744
 40
1000
 41
1
 50
0
  1
79.553370
  0
TEXT
  8
_0-4_
 62
    4
 10
42467.741935483864
 20
11835.483870967744
 40
1000
 41
1
 50
0
  1
5296.574564
  0
TEXT
  8
_0-4_
 62
    4
 10
42467.741935483864
 20
10335.483870967744
 40
1000
 41
1
 50
0
  1
2648.287282
  0
TEXT
  8
_0-4_
 62
    4
 10
42467.741935483864
 20
8835.4838709677442
 40
1000
 41
1
 50
0
  1
2648.28　㎡
  0
LINE
  8
ADD_LINE
  6
DOT
 62
    9
 10
100741.93548387096
 20
20685.483870967742
 11
100741.93548387096
 21
37335.483870967742
  0
CIRCLE
  8
_0-5_
  6
CONTINUOUS
 62
    7
 10
105677.62104885421
 20
30447.845860567417
 40
700
  0
CIRCLE
  8
_0-5_
  6
CONTINUOUS
 62
    7
 10
119725.1861951185
 20
30556.761646956802
 40
700
  0
TEXT
  8
_0-5_
 62
    7
 10
119125.1861951185
 20
29956.761646956802
 40
1200
 41
1
 50
0
  1
Ａ
  0
TEXT
  8
_0-5_
 62
    7
 10
121581.03323904837
 20
29978.733886895032
 40
1200
 41
1
 50
0
  1
1-15
  0
LINE
  8
ADD_LINE
  6
DOT
 62
    9
 10
155677.4193548387
 20
22335.483870967742
 11
155677.4193548387
 21
37335.483870967742
  0
CIRCLE
  8
_0-5_
  6
CONTINUOUS
 62
    7
 10
105677.62104885421
 20
34947.845860567417
 40
700
  0
TEXT
  8
_0-5_
 62
    7
 10
105077.62104885421
 20
34347.845860567417
 40
1200
 41
1
 50
0
  1
Ａ
  0
CIRCLE
  8
_0-5_
  6
CONTINUOUS
 62
    7
 10
119725.1861951185
 20
35056.761646956802
 40
700
  0
TEXT
  8
_0-5_
 62
    7
 10
119125.1861951185
 20
34456.761646956802
 40
1200
 41
1
 50
0
  1
Ａ
  0
TEXT
  8
_0-5_
 62
    7
 10
107576.5446556589
 20
34354.064849060698
 40
1200
 41
1
 50
0
  1
48-8
  0
TEXT
  8
_0-5_
 62
    7
 10
121581.03323904837
 20
34478.733886895032
 40
1200
 41
1
 50
0
  1
1-15
  0
CIRCLE
  8
_0-5_
  6
CONTINUOUS
 62
    7
 10
105677.62104885421
 20
30447.845860567417
 40
700
  0
CIRCLE
  8
_0-5_
  6
CONTINUOUS
 62
    7
 10
119725.1861951185
 20
30556.761646956802
 40
700
  0
TEXT
  8
_0-5_
 62
    7
 10
119125.1861951185
 20
29956.761646956802
 40
1200
 41
1
 50
0
  1
Ａ
  0
TEXT
  8
_0-5_
 62
    7
 10
105077.62104885421
 20
29847.845860567417
 40
1200
 41
1
 50
0
  1
Ｂ
  0
TEXT
  8
_0-5_
 62
    7
 10
107576.5446556589
 20
29854.064849060698
 40
1200
 41
1
 50
0
  1
48-9
  0
TEXT
  8
_0-5_
 62
    7
 10
121581.03323904837
 20
29978.733886895032
 40
1200
 41
1
 50
0
  1
1-16
  0
TEXT
  8
_0-4_
 62
    4
 10
22935.483870967731
 20
23835.483870967742
 40
1000
 41
1
 50
0
  1
26.850
  0
TEXT
  8
_0-4_
 62
    4
 10
22935.483870967731
 20
22335.483870967742
 40
1000
 41
1
 50
0
  1
35.521
  0
TEXT
  8
_0-4_
 62
    4
 10
22935.483870967731
 20
20835.483870967742
 40
1000
 41
1
 50
0
  1
41.205
  0
TEXT
  8
_0-4_
 62
    4
 10
22935.483870967731
 20
19335.483870967742
 40
1000
 41
1
 50
0
  1
54.065
  0
TEXT
  8
_0-4_
 62
    4
 10
22935.483870967731
 20
17835.483870967742
 40
1000
 41
1
 50
0
  1
60.595
  0
TEXT
  8
_0-4_
 62
    4
 10
22935.483870967731
 20
16335.483870967744
 40
1000
 41
1
 50
0
  1
21.470
  0
TEXT
  8
_0-4_
 62
    4
 10
22935.483870967731
 20
14685.483870967744
 40
1000
 41
1
 50
0
  1
60.595
  0
TEXT
  8
_0-4_
 62
    4
 10
22935.483870967731
 20
13335.483870967744
 40
1000
 41
1
 50
0
  1
59.995
  0
TEXT
  8
_0-4_
 62
    4
 10
32806.451612903213
 20
23835.483870967742
 40
1000
 41
1
 50
0
  1
20.033
  0
TEXT
  8
_0-4_
 62
    4
 10
32806.451612903213
 20
22335.483870967742
 40
1000
 41
1
 50
0
  1
11.440
  0
TEXT
  8
_0-4_
 62
    4
 10
32806.451612903213
 20
20835.483870967742
 40
1000
 41
1
 50
0
  1
12.952
  0
TEXT
  8
_0-4_
 62
    4
 10
32806.451612903213
 20
19335.483870967742
 40
1000
 41
1
 50
0
  1
13.994
  0
TEXT
  8
_0-4_
 62
    4
 10
32806.451612903213
 20
17835.483870967742
 40
1000
 41
1
 50
0
  1
19.008
  0
TEXT
  8
_0-4_
 62
    4
 10
32806.451612903213
 20
16335.483870967744
 40
1000
 41
1
 50
0
  1
10.510
  0
TEXT
  8
_0-4_
 62
    4
 10
33306.451612903213
 20
14835.483870967744
 40
1000
 41
1
 50
0
  1
9.407
  0
TEXT
  8
_0-4_
 62
    4
 10
33306.451612903213
 20
13335.483870967744
 40
1000
 41
1
 50
0
  1
1.326
  0
TEXT
  8
_0-4_
 62
    4
 10
58838.709677419341
 20
17835.483870967742
 40
1000
 41
1
 50
0
  1
22.568
  0
TEXT
  8
_0-4_
 62
    4
 10
58838.709677419341
 20
16335.483870967744
 40
1000
 41
1
 50
0
  1
41.344
  0
TEXT
  8
_0-4_
 62
    4
 10
58838.709677419341
 20
14835.483870967744
 40
1000
 41
1
 50
0
  1
59.992
  0
TEXT
  8
_0-4_
 62
    4
 10
58838.709677419341
 20
13335.483870967744
 40
1000
 41
1
 50
0
  1
22.368
  0
TEXT
  8
_0-4_
 62
    4
 10
69209.677419354834
 20
17835.483870967742
 40
1000
 41
1
 50
0
  1
9.306
  0
TEXT
  8
_0-4_
 62
    4
 10
69209.677419354834
 20
16335.483870967744
 40
1000
 41
1
 50
0
  1
5.056
  0
TEXT
  8
_0-4_
 62
    4
 10
68709.677419354834
 20
14835.483870967744
 40
1000
 41
1
 50
0
  1
10.176
  0
TEXT
  8
_0-4_
 62
    4
 10
69209.677419354834
 20
13185.483870967744
 40
1000
 41
1
 50
0
  1
8.955
  0
TEXT
  8
_0-4_
 62
    4
 10
105112.90322580644
 20
17835.483870967742
 40
1000
 41
1
 50
0
  1
7.914
  0
TEXT
  8
_0-4_
 62
    4
 10
105112.90322580644
 20
16185.483870967744
 40
1000
 41
1
 50
0
  1
1.180
  0
TEXT
  8
_0-4_
 62
    4
 10
105112.90322580644
 20
14685.483870967744
 40
1000
 41
1
 50
0
  1
7.943
  0
TEXT
  8
_0-4_
 62
    4
 10
114774.19354838708
 20
17835.483870967742
 40
1000
 41
1
 50
0
  1
132.076746
  0
TEXT
  8
_0-4_
 62
    4
 10
115274.19354838708
 20
16335.483870967744
 40
1000
 41
1
 50
0
  1
20.352640
  0
TEXT
  8
_0-4_
 62
    4
 10
114774.19354838708
 20
14835.483870967744
 40
1000
 41
1
 50
0
  1
229.171436
  0
TEXT
  8
_0-4_
 62
    4
 10
114774.19354838708
 20
13335.483870967744
 40
1000
 41
1
 50
0
  1
381.600822
  0
TEXT
  8
_0-4_
 62
    4
 10
94741.935483870955
 20
17835.483870967742
 40
1000
 41
1
 50
0
  1
16.689
  0
TEXT
  8
_0-4_
 62
    4
 10
94741.935483870955
 20
16335.483870967744
 40
1000
 41
1
 50
0
  1
17.248
  0
TEXT
  8
_0-4_
 62
    4
 10
94741.935483870955
 20
14835.483870967744
 40
1000
 41
1
 50
0
  1
28.852
  0
TEXT
  8
_0-4_
 62
    4
 10
130645.16129032256
 20
17835.483870967742
 40
1000
 41
1
 50
0
  1
22.350
  0
TEXT
  8
_0-4_
 62
    4
 10
130645.16129032256
 20
16335.483870967744
 40
1000
 41
1
 50
0
  1
28.852
  0
TEXT
  8
_0-4_
 62
    4
 10
130645.16129032256
 20
14835.483870967744
 40
1000
 41
1
 50
0
  1
14.429
  0
TEXT
  8
_0-4_
 62
    4
 10
130645.16129032256
 20
13335.483870967744
 40
1000
 41
1
 50
0
  1
14.429
  0
TEXT
  8
_0-4_
 62
    4
 10
141016.12903225806
 20
17835.483870967742
 40
1000
 41
1
 50
0
  1
8.962
  0
TEXT
  8
_0-4_
 62
    4
 10
141016.12903225806
 20
16335.483870967744
 40
1000
 41
1
 50
0
  1
9.793
  0
TEXT
  8
_0-4_
 62
    4
 10
141016.12903225806
 20
14835.483870967744
 40
1000
 41
1
 50
0
  1
3.484
  0
TEXT
  8
_0-4_
 62
    4
 10
141016.12903225806
 20
13335.483870967744
 40
1000
 41
1
 50
0
  1
5.913
  0
TEXT
  8
_0-4_
 62
    4
 10
150677.4193548387
 20
17835.483870967742
 40
1000
 41
1
 50
0
  1
200.300700
  0
LINE
  8
ADD_LINE
  6
DOT
 62
    9
 10
159677.4193548387
 20
37335.483870967742
 11
100741.93548387096
 21
37335.483870967742
  0
LINE
  8
ADD_LINE
  6
DOT
 62
    9
 10
159677.4193548387
 20
35835.483870967742
 11
100741.93548387096
 21
35835.483870967742
  0
LINE
  8
ADD_LINE
  6
DOT
 62
    9
 10
159677.4193548387
 20
34335.483870967742
 11
100741.93548387096
 21
34335.483870967742
  0
LINE
  8
ADD_LINE
  6
DOT
 62
    9
 10
159677.4193548387
 20
32835.483870967742
 11
100741.93548387096
 21
32835.483870967742
  0
LINE
  8
ADD_LINE
  6
DOT
 62
    9
 10
159677.4193548387
 20
31335.483870967742
 11
100741.93548387096
 21
31335.483870967742
  0
LINE
  8
ADD_LINE
  6
DOT
 62
    9
 10
159677.4193548387
 20
29835.483870967742
 11
100741.93548387096
 21
29835.483870967742
  0
LINE
  8
ADD_LINE
  6
DOT
 62
    9
 10
159677.4193548387
 20
28335.483870967742
 11
100741.93548387096
 21
28335.483870967742
  0
LINE
  8
ADD_LINE
  6
DOT
 62
    9
 10
159677.4193548387
 20
26835.483870967742
 11
100741.93548387096
 21
26835.483870967742
  0
LINE
  8
ADD_LINE
  6
DOT
 62
    9
 10
159677.4193548387
 20
25335.483870967742
 11
100741.93548387096
 21
25335.483870967742
  0
LINE
  8
ADD_LINE
  6
DOT
 62
    9
 10
159677.4193548387
 20
23835.483870967742
 11
100741.93548387096
 21
23835.483870967742
  0
LINE
  8
ADD_LINE
  6
DOT
 62
    9
 10
51967.741935483878
 20
23835.483870967742
 11
16064.516129032269
 21
23835.483870967742
  0
LINE
  8
_0-0_
  6
CONTINUOUS
 62
    7
 10
34009.604028242633
 20
91290.986705762116
 11
57165.60402824264
 21
91290.986705762116
  0
LINE
  8
_0-0_
  6
CONTINUOUS
 62
    7
 10
57165.60402824264
 20
91290.986705762116
 11
57058.798234632501
 21
91034.940578733818
  0
LINE
  8
_0-0_
  6
CONTINUOUS
 62
    7
 10
19257.437319670636
 20
80262.245236197239
 11
30153.556038932766
 21
94442.38225442612
  0
LINE
  8
_0-0_
  6
CONTINUOUS
 62
    7
 10
34009.604028242633
 20
91290.986705762116
 11
20080.412868400275
 21
102674.7638629218
  0
LINE
  8
_0-0_
  6
CONTINUOUS
 62
    7
 10
19257.437319670636
 20
80262.245236197239
 11
31271.346405164128
 21
59013.384361188022
  0
LINE
  8
_0-0_
  6
CONTINUOUS
 62
    7
 10
31271.346405164128
 20
59013.384361188022
 11
47476.059999622557
 21
68062.188554095163
  0
LINE
  8
_0-0_
  6
CONTINUOUS
 62
    7
 10
57165.60402824264
 20
91290.986705762116
 11
74559.864563738141
 21
91044.985845390926
  0
LINE
  8
_0-0_
  6
CONTINUOUS
 62
    7
 10
47476.059999622557
 20
68062.188554095163
 11
55025.394301424931
 21
54764.736444776259
  0
LINE
  8
_0-0_
  6
CONTINUOUS
 62
    7
 10
74559.864563738141
 20
91044.985845390926
 11
95300.795790557982
 21
90834.42506003454
  0
LINE
  8
_0-0_
  6
CONTINUOUS
 62
    7
 10
95300.795790557982
 20
90834.42506003454
 11
111945.60913485911
 21
90281.33850860213
  0
LINE
  8
_0-0_
  6
CONTINUOUS
 62
    7
 10
59687.331339195247
 20
46484.981191396735
 11
55025.394301424931
 21
54764.736444776259
  0
LINE
  8
_0-0_
  6
CONTINUOUS
 62
    7
 10
111945.60913485911
 20
90281.33850860213
 11
121683.51340553477
 21
89936.727981837626
  0
LINE
  8
_0-0_
  6
CONTINUOUS
 62
    7
 10
121683.51340553477
 20
89936.727981837626
 11
137379.46241037161
 21
89580.098149152545
  0
LINE
  8
_0-0_
  6
CONTINUOUS
 62
    7
 10
82243.955262855772
 20
47201.459499892473
 11
99665.345592815109
 21
57024.654447118133
  0
LINE
  8
_0-0_
  6
CONTINUOUS
 62
    7
 10
99665.345592815109
 20
57024.654447118133
 11
117076.651736245
 21
66871.807709851462
  0
LINE
  8
_0-0_
  6
CONTINUOUS
 62
    7
 10
117076.651736245
 20
66871.807709851462
 11
134467.90458140007
 21
76764.450858974233
  0
LINE
  8
_0-0_
  6
CONTINUOUS
 62
    7
 10
134467.90458140007
 20
76764.450858974233
 11
144004.87700058275
 21
82044.409009920972
  0
LINE
  8
_0-0_
  6
CONTINUOUS
 62
    7
 10
144004.87700058275
 20
82044.409009920972
 11
141281.26676645546
 21
89483.497078532411
  0
TEXT
  8
_0-f_
 62
    7
 10
30969.1149556489
 20
93937.397379712245
 40
1200
 41
1
 50
-39.257770840000049
  1
4.980
  0
TEXT
  8
_0-f_
 62
    7
 10
23721.307612107943
 20
86369.833829838608
 40
1200
 41
1
 50
52.46106685000003
  1
17.883
  0
TEXT
  8
_0-f_
 62
    7
 10
43173.143497346529
 20
91432.640430106185
 40
1200
 41
1
 50
0
  1
23.156
  0
TEXT
  8
_0-f_
 62
    7
 10
63829.974179671488
 20
91301.304024576239
 40
1200
 41
1
 50
-0.5816435997999888
  1
17.396
  0
TEXT
  8
_0-f_
 62
    7
 10
83260.180809670012
 20
91163.501140675537
 40
1200
 41
1
 50
-0.5816435997999887
  1
20.742
  0
TEXT
  8
_0-f_
 62
    7
 10
102476.99365343394
 20
90689.441381496115
 40
1200
 41
1
 50
-1.9031676010000287
  1
16.654
  0
TEXT
  8
_0-f_
 62
    7
 10
115167.56894702694
 20
90240.57858976131
 40
1200
 41
1
 50
-2.0267700269999929
  1
9.744
  0
TEXT
  8
_0-f_
 62
    7
 10
137709.04360140479
 20
89694.049676426977
 40
1200
 41
1
 50
-1.4182420940000222
  1
3.903
  0
TEXT
  8
_0-f_
 62
    7
 10
126926.52539120709
 20
89952.262847231206
 40
1200
 41
1
 50
-1.4182420940000247
  1
15.700
  0
TEXT
  8
_0-f_
 62
    7
 10
22933.414146869451
 20
71082.706507926094
 40
1200
 41
1
 50
-60.516584360000017
  1
24.410
  0
TEXT
  8
_0-f_
 62
    7
 10
39412.069132436874
 20
61837.048939687884
 40
1200
 41
1
 50
29.179239240000037
  1
18.560
  0
TEXT
  8
_0-f_
 62
    7
 10
49223.787368118246
 20
62340.213977415122
 40
1200
 41
1
 50
-60.415214500000012
  1
15.291
  0
TEXT
  8
_0-f_
 62
    7
 10
55361.732372422695
 20
51468.689188839649
 40
1200
 41
1
 50
-60.618204160000055
  1
9.502
  0
TEXT
  8
_0-f_
 62
    7
 10
59907.232954789637
 20
43307.449506862642
 40
1200
 41
1
 50
-60.618204159999983
  1
10.500
  0
TEXT
  8
_0-f_
 62
    7
 10
72613.973219133593
 20
40104.937732922292
 40
1200
 41
1
 50
29.546264730000011
  1
20.007
  0
TEXT
  8
_0-f_
 62
    7
 10
90188.592148591226
 20
50189.811384616223
 40
1200
 41
1
 50
29.546264730000011
  1
20.000
  0
TEXT
  8
_0-f_
 62
    7
 10
107937.31347334942
 20
60198.116443612525
 40
1200
 41
1
 50
29.546264730000054
  1
20.003
  0
TEXT
  8
_0-f_
 62
    7
 10
124865.72562905458
 20
69746.970740794466
 40
1200
 41
1
 50
29.632459870000037
  1
20.008
  0
TEXT
  8
_0-f_
 62
    7
 10
138166.15672761263
 20
77224.895521528815
 40
1200
 41
1
 50
28.970248209999998
  1
10.901
  0
TEXT
  8
_0-f_
 62
    7
 10
142219.07779198009
 20
87442.82327535667
 40
1200
 41
1
 50
-69.891234349999976
  1
7.922
  0
LINE
  8
_0-1_
  6
CONTINUOUS
 62
    4
 10
34009.604028242633
 20
91290.986705762116
 11
19257.437319670636
 21
80262.245236197239
  0
LINE
  8
_0-1_
  6
CONTINUOUS
 62
    4
 10
47476.059999622557
 20
68062.188554095163
 11
19257.437319670636
 21
80262.245236197239
  0
LINE
  8
_0-1_
  6
CONTINUOUS
 62
    4
 10
74559.864563738141
 20
91044.985845390926
 11
47476.059999622557
 21
68062.188554095163
  0
LINE
  8
_0-1_
  6
CONTINUOUS
 62
    4
 10
55025.394301424931
 20
54764.736444776259
 11
74559.864563738141
 21
91044.985845390926
  0
LINE
  8
_0-1_
  6
CONTINUOUS
 62
    4
 10
57058.798234632501
 20
91034.940578733818
 11
47476.059999622557
 21
68062.188554095163
  0
LINE
  8
_0-1_
  6
CONTINUOUS
 62
    4
 10
55025.394301424931
 20
54764.736444776259
 11
95300.795790557982
 21
90834.42506003454
  0
LINE
  8
_0-1_
  6
CONTINUOUS
 62
    4
 10
55025.394301424931
 20
54764.736444776259
 11
111495.68830430496
 21
76738.810264354921
  0
LINE
  8
_0-1_
  6
CONTINUOUS
 62
    4
 10
111495.68830430495
 20
76738.810264354906
 11
95300.795790557982
 21
90834.42506003454
  0
LINE
  8
_0-1_
  6
CONTINUOUS
 62
    4
 10
111495.68830430496
 20
76738.810264354921
 11
111945.60913485911
 21
90281.33850860213
  0
LINE
  8
_0-1_
  6
CONTINUOUS
 62
    4
 10
112149.04985010556
 20
75584.949488321217
 11
121683.51340553477
 21
89936.727981837626
  0
LINE
  8
_0-1_
  6
CONTINUOUS
 62
    4
 10
121683.51340553477
 20
89936.727981837626
 11
111495.68830430496
 21
76738.810264354921
  0
LINE
  8
_0-1_
  6
CONTINUOUS
 62
    4
 10
137379.46241037161
 20
89580.098149152545
 11
112149.04985010556
 21
75584.949488321217
  0
LINE
  8
_0-1_
  6
CONTINUOUS
 62
    4
 10
59687.331339195247
 20
46484.98119139675
 11
111495.68830430496
 21
76738.810264354906
  0
LINE
  8
_0-1_
  6
CONTINUOUS
 62
    4
 10
112149.04985010556
 20
75584.949488321217
 11
59687.331339195269
 21
46484.981191396699
  0
LINE
  8
_0-1_
  6
CONTINUOUS
 62
    4
 10
59687.331339192882
 20
46484.981191395374
 11
99665.345592815109
 21
57024.654447118119
  0
LINE
  8
_0-1_
  6
CONTINUOUS
 62
    4
 10
59687.331339192882
 20
46484.981191395374
 11
82243.955262855787
 21
47201.459499892473
  0
LINE
  8
_0-1_
  6
CONTINUOUS
 62
    4
 10
99665.345592815109
 20
57024.654447118119
 11
112149.04985010556
 21
75584.949488321217
  0
LINE
  8
_0-1_
  6
CONTINUOUS
 62
    4
 10
117076.651736245
 20
66871.807709851462
 11
112149.04985010556
 21
75584.949488321217
  0
LINE
  8
_0-1_
  6
CONTINUOUS
 62
    4
 10
111495.68830430496
 20
76738.810264354921
 11
112149.04985010556
 21
75584.949488321217
  0
LINE
  8
_0-1_
  6
CONTINUOUS
 62
    4
 10
134467.90458140007
 20
76764.450858974233
 11
112149.04985010556
 21
75584.949488321217
  0
LINE
  8
_0-1_
  6
CONTINUOUS
 62
    4
 10
134467.90458140007
 20
76764.450858974233
 11
137379.46241037161
 21
89580.098149152545
  0
LINE
  8
_0-1_
  6
CONTINUOUS
 62
    4
 10
141281.26676645546
 20
89483.497078532411
 11
134467.90458140007
 21
76764.450858974233
  0
LINE
  8
_0-1_
  6
DASHED1
 62
    4
 10
144004.87700058275
 20
82044.409009920972
 11
138792.11162945512
 21
84836.792797259754
  0
LINE
  8
_0-1_
  6
DASHED1
 62
    4
 10
137379.46241037161
 20
89580.098149152545
 11
140451.482540078
 21
87934.472728894121
  0
LINE
  8
_0-1_
  6
DASHED1
 62
    4
 10
134467.90458140007
 20
76764.450858974233
 11
129716.82539410092
 21
85329.682349547933
  0
LINE
  8
_0-1_
  6
DASHED1
 62
    4
 10
121683.51340553477
 20
89936.727981837626
 11
125527.88600976173
 21
83006.10443440266
  0
LINE
  8
_0-1_
  6
DASHED1
 62
    4
 10
111945.60913485911
 20
90281.33850860213
 11
118214.23572223049
 21
85442.418259360973
  0
LINE
  8
_0-1_
  6
DASHED1
 62
    4
 10
111945.60913485911
 20
90281.33850860213
 11
105045.1531583054
 21
82353.188906684401
  0
LINE
  8
_0-1_
  6
DASHED1
 62
    4
 10
117076.651736245
 20
66871.807709851462
 11
109648.85894652644
 21
71867.761074260488
  0
LINE
  8
_0-1_
  6
DASHED1
 62
    4
 10
117076.651736245
 20
66871.807709851462
 11
116603.74031415259
 21
75820.369879351012
  0
LINE
  8
_0-1_
  6
DASHED1
 62
    4
 10
112149.04985010556
 20
75584.949488321217
 11
111480.44376672205
 21
76729.90811687625
  0
LINE
  8
_0-1_
  6
DASHED1
 62
    4
 10
111495.68830430499
 20
76738.810264354892
 11
112480.82009759464
 21
76084.347600760491
  0
LINE
  8
_0-1_
  6
DASHED1
 62
    4
 10
57058.798234632501
 20
91034.940578733818
 11
39918.643995523176
 21
81098.260649121163
  0
LINE
  8
_0-1_
  6
DASHED1
 62
    4
 10
34009.604028242633
 20
91290.986705762116
 11
27669.130808109207
 21
76625.52850075117
  0
LINE
  8
_0-1_
  6
DASHED1
 62
    4
 10
31271.346405164128
 20
59013.384361188022
 11
37119.368294389154
 21
72539.807014640071
  0
LINE
  8
_0-1_
  6
DASHED1
 62
    4
 10
47476.059999622557
 20
68062.188554095163
 11
58879.274078376147
 21
61922.325956559522
  0
LINE
  8
_0-1_
  6
DASHED1
 62
    4
 10
74559.864563738141
 20
91044.985845390926
 11
83895.850048865454
 21
80620.427772192212
  0
LINE
  8
_0-1_
  6
DASHED1
 62
    4
 10
57058.798234632501
 20
91034.940578733818
 11
64380.399276968135
 21
82406.886767922682
  0
LINE
  8
_0-1_
  6
DASHED1
 62
    4
 10
95300.795790557982
 20
90834.42506003454
 11
102194.19463442441
 21
73119.354900374077
  0
LINE
  8
_0-1_
  6
DASHED1
 62
    4
 10
59687.331339195247
 20
46484.98119139675
 11
56276.082898946654
 21
55251.412210371629
  0
LINE
  8
_0-1_
  6
DASHED1
 62
    4
 10
82243.955262855772
 20
47201.459499892473
 11
80954.672948885665
 21
52091.833751954684
  0
LINE
  8
_0-1_
  6
DASHED1
 62
    4
 10
30153.556038932722
 20
94442.382254426164
 11
33047.35346595139
 21
90571.606773979816
  0
TEXT
  8
_0-7_
 62
    7
 10
28769.642434710637
 20
89409.946088621888
 40
1200
 41
1
 50
0
  1
イ
  0
TEXT
  8
_0-7_
 62
    7
 10
34122.455520242613
 20
79314.134066542596
 40
1200
 41
1
 50
0
  1
ロ
  0
TEXT
  8
_0-7_
 62
    7
 10
31344.413285979179
 20
68676.265023143598
 40
1200
 41
1
 50
0
  1
ハ
  0
TEXT
  8
_0-7_
 62
    7
 10
46115.467116940854
 20
79652.919704867396
 40
1200
 41
1
 50
0
  1
二
  0
TEXT
  8
_0-7_
 62
    7
 10
58176.235841304049
 20
82363.204811465868
 40
1200
 41
1
 50
0
  1
ホ
  0
TEXT
  8
_0-7_
 62
    7
 10
56753.336160339844
 20
68811.779278473521
 40
1200
 41
1
 50
0
  1
ヘ
  0
TEXT
  8
_0-7_
 62
    7
 10
74381.706006637454
 20
79867.009391010011
 40
1200
 41
1
 50
0
  1
ト
  0
TEXT
  8
_0-7_
 62
    7
 10
90958.188837022462
 20
75249.274888259897
 40
1200
 41
1
 50
0
  1
チ
  0
TEXT
  8
_0-7_
 62
    7
 10
104219.37510133049
 20
86734.409420740951
 40
1200
 41
1
 50
0
  1
リ
  0
TEXT
  8
_0-7_
 62
    7
 10
63014.974922944864
 20
52871.02306724013
 40
1200
 41
1
 50
0
  1
ヌ
  0
TEXT
  8
_0-7_
 62
    7
 10
108511.36371040912
 20
74011.222237103095
 40
1200
 41
1
 50
0
  1
ル
  0
TEXT
  8
_0-7_
 62
    7
 10
114002.26494821615
 20
84076.240846339279
 40
1200
 41
1
 50
0
  1
イ
  0
TEXT
  8
_0-7_
 62
    7
 10
112775.03180562207
 20
77693.157748375845
 40
1200
 41
1
 50
0
  1
ロ
  0
TEXT
  8
_0-7_
 62
    7
 10
126022.33332936675
 20
86434.721595558833
 40
1200
 41
1
 50
0
  1
ハ
  0
TEXT
  8
_0-7_
 62
    7
 10
118990.84987901637
 20
83132.473587497239
 40
1200
 41
1
 50
0
  1
Ｂ
  0
CIRCLE
  8
_0-7_
  6
CONTINUOUS
 62
    7
 10
119562.97214371897
 20
83725.785565707338
 40
700
  0
TEXT
  8
_0-7_
 62
    7
 10
120558.88867857166
 20
83132.473587497239
 40
1200
 41
1
 50
0
  1
48-9
  0
TEXT
  8
_0-7_
 62
    7
 10
122004.2447441962
 20
73653.70911336143
 40
1200
 41
1
 50
0
  1
Ｂ
  0
CIRCLE
  8
_0-7_
  6
CONTINUOUS
 62
    7
 10
122576.3670088988
 20
74247.021091571543
 40
700
  0
TEXT
  8
_0-7_
 62
    7
 10
123786.26251219762
 20
73642.164399473739
 40
1200
 41
1
 50
0
  1
1-16
  0
TEXT
  8
_0-7_
 62
    7
 10
119276.01253257768
 20
71161.568629898073
 40
1200
 41
1
 50
0
  1
イ
  0
TEXT
  8
_0-7_
 62
    7
 10
127526.34700559686
 20
79411.903102917247
 40
1200
 41
1
 50
0
  1
ロ
  0
TEXT
  8
_0-7_
 62
    7
 10
137162.73767008327
 20
85022.130544570289
 40
1200
 41
1
 50
0
  1
ハ
  0
CIRCLE
  8
_0-7_
  6
CONTINUOUS
 62
    7
 10
69224.230457591344
 20
74756.009904108389
 40
700
  0
TEXT
  8
_0-7_
 62
    7
 10
68652.108192888743
 20
74162.697925898305
 40
1200
 41
1
 50
0
  1
Ａ
  0
TEXT
  8
_0-7_
 62
    7
 10
70220.146992444003
 20
74162.697925898305
 40
1200
 41
1
 50
0
  1
48-8
  0
CIRCLE
  8
_0-7_
  6
CONTINUOUS
 62
    7
 10
84246.751640882547
 20
56745.529749507543
 40
700
  0
TEXT
  8
_0-7_
 62
    7
 10
83674.629376179946
 20
56152.217771297444
 40
1200
 41
1
 50
0
  1
Ａ
  0
TEXT
  8
_0-7_
 62
    7
 10
85602.544943064626
 20
56115.256190652959
 40
1200
 41
1
 50
0
  1
1-15
  0
TEXT
  8
_0-7_
 62
    7
 10
139495.9039649622
 20
81004.81132756111
 40
1200
 41
1
 50
0
  1
二
  0
TEXT
  8
_0-7_
 62
    7
 10
77994.427351356819
 20
48856.437178129585
 40
1200
 41
1
 50
0
  1
ロ
  0
TEXT
  8
_0-7_
 62
    7
 10
100172.13408239943
 20
64841.291184852613
 40
1200
 41
1
 50
0
  1
ハ
  0
TEXT
  8
_0-7_
 62
    7
 10
109749.43451349798
 20
65864.109677494213
 40
1200
 41
1
 50
0
  1
二
  0
LINE
  8
_0-1_
  6
DASHED1
 62
    4
 10
99665.345592815109
 20
57024.654447118133
 11
94729.729154006433
 21
65922.63391043889
  0
TEXT
  8
_0-7_
 62
    7
 10
68613.712795049927
 20
43354.298468931695
 40
1200
 41
1
 50
0
  1
イ
  0
LINE
  8
_0-0_
  6
CONTINUOUS
 62
    7
 10
64838.709677418614
 20
37335.483870969038
 11
59687.331339195953
 21
46484.981191395469
  0
LINE
  8
_0-0_
  6
CONTINUOUS
 62
    7
 10
64838.709677419341
 20
37335.483870967742
 11
82243.955262858857
 21
47201.459499892568
  0
LINE
  8
_0-1_
  6
DASHED1
 62
    4
 10
64781.919527611288
 20
37436.350336092233
 11
64489.657770598868
 21
46637.520096599852
  0
TEXT
  8
_0-4_
 62
    4
 10
25064.676355051688
 20
84705.023854739586
 40
1000
 41
1
 50
36.781843809999984
  1
18.491
  0
TEXT
  8
_0-4_
 62
    4
 10
30236.094798359532
 20
92518.362589737313
 40
1000
 41
1
 50
-53.218156190000066
  1
4.816
  0
TEXT
  8
_0-4_
 62
    4
 10
31247.894059006718
 20
75205.353018663227
 40
1000
 41
1
 50
-23.380788929999927
  1
30.743
  0
TEXT
  8
_0-4_
 62
    4
 10
29449.139817856165
 20
80995.093232366577
 40
1000
 41
1
 50
66.619211069999977
  1
16.035
  0
TEXT
  8
_0-4_
 62
    4
 10
33664.970070552787
 20
64862.516132047531
 40
1000
 41
1
 50
66.619211069999977
  1
14.736
  0
TEXT
  8
_0-4_
 62
    4
 10
45469.294778103293
 20
84536.390644631712
 40
1000
 41
1
 50
30.102201839999942
  1
20.033
  0
TEXT
  8
_0-4_
 62
    4
 10
40691.353825047132
 20
79983.29397171938
 40
1000
 41
1
 50
-59.897798159999965
  1
26.850
  0
TEXT
  8
_0-4_
 62
    4
 10
58236.575884094076
 20
77544.799435187088
 40
1000
 41
1
 50
40.317297349999969
  1
35.521
  0
TEXT
  8
_0-4_
 62
    4
 10
61052.838705559814
 20
86650.715891259635
 40
1000
 41
1
 50
-49.682702650000031
  1
11.440
  0
TEXT
  8
_0-4_
 62
    4
 10
79827.924181998053
 20
85336.459907908953
 40
1000
 41
1
 50
-48.153133780000047
  1
13.994
  0
TEXT
  8
_0-4_
 62
    4
 10
77762.664779589846
 20
75479.540032778881
 40
1000
 41
1
 50
41.846866219999988
  1
54.065
  0
TEXT
  8
_0-4_
 62
    4
 10
86962.456663044577
 20
67500.12870529262
 40
1000
 41
1
 50
21.262317849999992
  1
60.595
  0
TEXT
  8
_0-4_
 62
    4
 10
99447.888504875998
 20
80642.688538799397
 40
1000
 41
1
 50
-68.737682149999983
  1
19.008
  0
TEXT
  8
_0-4_
 62
    4
 10
102451.90218110611
 20
84867.082770998008
 40
1000
 41
1
 50
-41.035466459999967
  1
21.470
  0
TEXT
  8
_0-4_
 62
    4
 10
107708.92611450881
 20
85524.210762673334
 40
1000
 41
1
 50
48.964533540000119
  1
10.510
  0
TEXT
  8
_0-4_
 62
    4
 10
57328.370146023612
 20
52938.734324439349
 40
1000
 41
1
 50
-68.737682149999983
  1
9.407
  0
TEXT
  8
_0-4_
 62
    4
 10
89646.223983540636
 20
64104.001673364757
 40
1000
 41
1
 50
30.283071669999998
  1
59.995
  0
TEXT
  8
_0-4_
 62
    4
 10
90689.524966785117
 20
62370.775846361808
 40
1000
 41
1
 50
29.01667522000001
  1
59.992
  0
TEXT
  8
_0-4_
 62
    4
 10
110293.66989755795
 20
76635.000968453882
 40
1000
 41
1
 50
-59.716928329999945
  1
1.326
  0
TEXT
  8
_0-4_
 62
    4
 10
111343.8073622933
 20
77197.655646910556
 40
1000
 41
1
 50
-33.597686510000038
  1
1.180
  0
TEXT
  8
_0-4_
 62
    4
 10
123309.63965694973
 20
87160.89873651012
 40
1000
 41
1
 50
-60.983147889999906
  1
7.943
  0
TEXT
  8
_0-4_
 62
    4
 10
126440.75308046691
 20
82066.205708414374
 40
1000
 41
1
 50
29.016852109999981
  1
28.852
  0
TEXT
  8
_0-4_
 62
    4
 10
131535.44610856264
 20
82278.484584585036
 40
1000
 41
1
 50
-60.983147889999906
  1
9.793
  0
TEXT
  8
_0-4_
 62
    4
 10
137479.25464134102
 20
88328.432555448715
 40
1000
 41
1
 50
-28.177145990000014
  1
3.484
  0
TEXT
  8
_0-4_
 62
    4
 10
140026.60115538887
 20
84295.133908206262
 40
1000
 41
1
 50
-28.177145990000014
  1
5.913
  0
TEXT
  8
_0-4_
 62
    4
 10
116304.43674331809
 20
86789.41070321147
 40
1000
 41
1
 50
61.822854009999908
  1
14.429
  0
TEXT
  8
_0-4_
 62
    4
 10
138275.30042698095
 20
81376.299360859746
 40
1000
 41
1
 50
61.822854009999958
  1
14.429
  0
TEXT
  8
_0-4_
 62
    4
 10
118055.737471726
 20
76069.327456593368
 40
1000
 41
1
 50
3.0251391340000158
  1
22.350
  0
TEXT
  8
_0-4_
 62
    4
 10
118108.80719076868
 20
70656.216114241644
 40
1000
 41
1
 50
93.025139130000127
  1
8.962
  0
TEXT
  8
_0-4_
 62
    4
 10
77776.712646395259
 20
51508.52769444084
 40
1000
 41
1
 50
14.769218569999991
  1
41.344
  0
TEXT
  8
_0-4_
 62
    4
 10
70210.932952623887
 20
46969.059878178021
 40
1000
 41
1
 50
1.8193053119999896
  1
22.368
  0
TEXT
  8
_0-4_
 62
    4
 10
81475.538274461258
 20
51004.142381522746
 40
1000
 41
1
 50
-75.230781429999993
  1
5.056
  0
TEXT
  8
_0-4_
 62
    4
 10
65923.657792820115
 20
41673.014092538055
 40
1000
 41
1
 50
91.819305310000004
  1
9.306
  0
TEXT
  8
_0-4_
 62
    4
 10
96359.810609826207
 20
63353.555195555746
 40
1000
 41
1
 50
-60.983324779999997
  1
10.176
  0
TEXT
  8
_0-4_
 62
    4
 10
106402.02853758003
 20
67444.829166122116
 40
1000
 41
1
 50
56.075117230000011
  1
22.368
  0
TEXT
  8
_0-4_
 62
    4
 10
111609.10450011907
 20
70792.235142040066
 40
1000
 41
1
 50
-33.924882769999989
  1
8.955
  0
LINE
  8
_0-0_
  6
CONTINUOUS
 62
    7
 10
137379.46241037161
 20
89580.098149152545
 11
154093.64278246721
 21
89166.287621732103
  0
LINE
  8
_0-1_
  6
CONTINUOUS
 62
    4
 10
34009.604028242633
 20
91290.986705762116
 11
34267.563972796757
 21
90846.021861559755
  0
LINE
  8
_0-1_
  6
CONTINUOUS
 62
    4
 10
34267.563972796757
 20
90846.021861559755
 11
47476.059999622557
 21
68062.188554095163
  0
LINE
  8
_0-0_
  6
CONTINUOUS
 62
    7
 10
35230.911745610174
 20
101270.42067614329
 11
20080.412868400275
 21
113652.32433866058
  0
LINE
  8
_0-0_
  6
CONTINUOUS
 62
    7
 10
35230.911745610174
 20
101270.42067614329
 11
125525.54457588404
 21
99749.9176392753
  0
LINE
  8
_0-0_
  6
CONTINUOUS
 62
    7
 10
133371.08188876134
 20
101912.7330958177
 11
139438.38328462298
 21
99515.634461582391
  0
LINE
  8
_0-0_
  6
CONTINUOUS
 62
    7
 10
139438.38328462298
 20
99515.634461582391
 11
154093.64278246721
 21
99268.849399457526
  0
TEXT
  8
_0-4_
 62
    7
 10
100741.93548387096
 20
35835.483870967742
 40
1200
 41
1
 50
0
  1
合 計　(建設局)
  0
TEXT
  8
_0-4_
 62
    7
 10
115977.41935483868
 20
25335.483870967742
 40
1200
 41
1
 50
0
  1
2648.28  +  614.91  +  190.80  +  309.21  ＝　3763.20　㎡
  0
TEXT
  8
_0-4_
 62
    7
 10
100741.93548387096
 20
26835.483870967742
 40
1200
 41
1
 50
0
  1
総合計　( 建設局＋都市計画局 )
  0
TEXT
  8
_0-4_
 62
    7
 10
100741.93548387096
 20
31335.483870967742
 40
1200
 41
1
 50
0
  1
合 計　(都市計画局)
  0
TEXT
  8
_0-4_
 62
    7
 10
132077.4193548387
 20
29835.483870967742
 40
1200
 41
1
 50
0
  1
190.80  +  309.21  ＝　 500.01　㎡
  0
TEXT
  8
_0-4_
 62
    7
 10
114599.56712032601
 20
29895.621195005482
 40
1200
 41
1
 50
0
  1
＋
  0
TEXT
  8
_0-4_
 62
    7
 10
128443.82339824588
 20
29858.896982310092
 40
1200
 41
1
 50
0
  1
＝
  0
TEXT
  8
_0-4_
 62
    7
 10
114599.56712032601
 20
34395.621195005479
 40
1200
 41
1
 50
0
  1
＋
  0
TEXT
  8
_0-4_
 62
    7
 10
128443.82339824588
 20
34358.896982310092
 40
1200
 41
1
 50
0
  1
＝
  0
TEXT
  8
_0-4_
 62
    7
 10
131377.4193548387
 20
34335.483870967742
 40
1200
 41
1
 50
0
  1
2648.28  +  614.91  ＝　3263.19　㎡
  0
TEXT
  8
_0-4_
 62
    7
 10
114599.56712032601
 20
29895.621195005482
 40
1200
 41
1
 50
0
  1
＋
  0
TEXT
  8
_0-4_
 62
    7
 10
128443.82339824588
 20
29858.896982310092
 40
1200
 41
1
 50
0
  1
＝
  0
TEXT
  8
_0-4_
 62
    4
 10
42967.741935483857
 20
26835.483870967742
 40
1000
 41
1
 50
0
  1
492.964005
  0
TEXT
  8
_0-4_
 62
    4
 10
42967.741935483857
 20
25335.483870967742
 40
1000
 41
1
 50
0
  1
453.028848
  0
TEXT
  8
_0-4_
 62
    4
 10
43467.741935483857
 20
28335.483870967742
 40
1000
 41
1
 50
0
  1
89.052656
  0
TEXT
  8
_0-4_
 62
    4
 10
22935.483870967721
 20
28335.483870967742
 40
1000
 41
1
 50
0
  1
18.491
  0
TEXT
  8
_0-4_
 62
    4
 10
22935.483870967721
 20
26835.483870967742
 40
1000
 41
1
 50
0
  1
30.743
  0
TEXT
  8
_0-4_
 62
    4
 10
22935.483870967721
 20
25335.483870967742
 40
1000
 41
1
 50
0
  1
30.743
  0
TEXT
  8
_0-4_
 62
    4
 10
33306.451612903205
 20
28335.483870967742
 40
1000
 41
1
 50
0
  1
4.816
  0
TEXT
  8
_0-4_
 62
    4
 10
32806.451612903205
 20
26835.483870967742
 40
1000
 41
1
 50
0
  1
16.035
  0
TEXT
  8
_0-4_
 62
    4
 10
32806.451612903205
 20
25335.483870967742
 40
1000
 41
1
 50
0
  1
14.736
  0
LINE
  8
ADD_LINE
  6
DOT
 62
    9
 10
51967.741935483864
 20
32835.483870967742
 11
16064.516129032256
 21
32835.483870967742
  0
LINE
  8
ADD_LINE
  6
DOT
 62
    9
 10
51967.741935483864
 20
31335.483870967742
 11
16064.516129032256
 21
31335.483870967742
  0
LINE
  8
ADD_LINE
  6
DOT
 62
    9
 10
51967.741935483864
 20
29835.483870967742
 11
16064.516129032256
 21
29835.483870967742
  0
LINE
  8
ADD_LINE
  6
DOT
 62
    9
 10
51967.741935483864
 20
28335.483870967742
 11
16064.516129032256
 21
28335.483870967742
  0
LINE
  8
ADD_LINE
  6
DOT
 62
    9
 10
51967.741935483864
 20
26835.483870967742
 11
16064.516129032256
 21
26835.483870967742
  0
LINE
  8
ADD_LINE
  6
DOT
 62
    9
 10
51967.741935483864
 20
25335.483870967742
 11
16064.516129032256
 21
25335.483870967742
  0
CIRCLE
  8
_0-8_
  6
CONTINUOUS
 62
    7
 10
142965.89985462406
 20
106480.10631456539
 40
1500
  0
CIRCLE
  8
_0-8_
  6
CONTINUOUS
 62
    7
 10
142965.89985462406
 20
106480.10631456539
 40
1000
  0
LINE
  8
_0-8_
  6
CONTINUOUS
 62
    7
 10
142317.95438689488
 20
108372.23915103571
 11
143613.84532235321
 21
104587.97347809505
  0
LINE
  8
_0-8_
  6
CONTINUOUS
 62
    7
 10
137298.25747969179
 20
104539.26837826191
 11
139632.65925026481
 21
106108.11939645448
  0
LINE
  8
_0-8_
  6
CONTINUOUS
 62
    7
 10
139632.65925026481
 20
106108.11939645448
 11
140899.56901865944
 21
105003.05400294978
  0
LINE
  8
_0-8_
  6
CONTINUOUS
 62
    7
 10
137298.25747969179
 20
104539.26837826191
 11
145665.68557479681
 21
107404.62592941921
  0
LINE
  8
_0-8_
  6
CONTINUOUS
 62
    7
 10
139960.38627100844
 20
106220.34684351856
 11
141227.29603940307
 21
105115.28145001386
  0
LINE
  8
_0-0_
  6
CONTINUOUS
 62
    7
 10
133371.08188876134
 20
101912.7330958177
 11
119687.44176729349
 21
113652.32433866058
  0
LINE
  8
_0-0_
  6
CONTINUOUS
 62
    7
 10
125525.54457588404
 20
99749.9176392753
 11
109320.93181198988
 21
113652.32433866058
  0
LINE
  8
_7-0_
  6
CONTINUOUS
 62
    7
 10
30127.997867862086
 20
93418.978473020237
 11
67177.597867862074
 21
93418.978473020237
  0
LINE
  8
_7-0_
  6
CONTINUOUS
 62
    7
 10
6524.5311341468778
 20
75772.992121716437
 11
23958.321084966294
 21
98461.211350882673
  0
LINE
  8
_7-0_
  6
CONTINUOUS
 62
    7
 10
6524.5311341468778
 20
75772.992121716437
 11
25746.785670936471
 21
41774.814721701696
  0
LINE
  8
_7-0_
  6
CONTINUOUS
 62
    7
 10
25746.785670936471
 20
41774.814721701696
 11
51674.327422069953
 21
56252.901430353129
  0
LINE
  8
_7-0_
  6
CONTINUOUS
 62
    7
 10
67177.597867862074
 20
93418.978473020237
 11
95008.414724654896
 21
93025.377096426339
  0
LINE
  8
_7-0_
  6
CONTINUOUS
 62
    7
 10
51674.327422069953
 20
56252.901430353129
 11
63753.262304953751
 21
34976.978055442865
  0
LINE
  8
_7-0_
  6
CONTINUOUS
 62
    7
 10
95008.414724654896
 20
93025.377096426339
 11
128193.90468756665
 21
92688.479839856125
  0
LINE
  8
_7-0_
  6
CONTINUOUS
 62
    7
 10
128193.90468756665
 20
92688.479839856125
 11
154825.60603844843
 21
91803.541357564274
  0
LINE
  8
_7-0_
  6
CONTINUOUS
 62
    7
 10
71212.361565386236
 20
21729.369650035642
 11
63753.262304953751
 21
34976.978055442865
  0
LINE
  8
_7-0_
  6
CONTINUOUS
 62
    7
 10
154105.73270956182
 20
70135.496166768731
 11
154825.60603844846
 21
91803.541357564274
  0
LINE
  8
_7-0_
  6
CONTINUOUS
 62
    7
 10
155151.11118284275
 20
68289.318925114814
 11
71212.361565386294
 21
21729.369650035573
  0
LINE
  8
_7-0_
  6
CONTINUOUS
 62
    7
 10
154105.73270956182
 20
70135.496166768731
 11
155151.11118284275
 21
68289.318925114814
  0
LINE
  8
_7-0_
  6
CONTINUOUS
 62
    7
 10
32082.090215650147
 20
109386.07282563014
 11
165886.07040196125
 21
107132.90060662646
  0
LINE
  8
_7-0_
  6
CONTINUOUS
 62
    7
 10
154825.60603844843
 20
91803.541357564274
 11
165877.50813342014
 21
91412.430324139248
  0
LINE
  8
_7-0_
  6
CONTINUOUS
 62
    7
 10
32082.090215650147
 20
109386.07282563014
 11
23018.879505470373
 21
116793.07656828228
  0
TEXT
  8
_7-4_
 62
    7
 10
26280.820039807189
 20
97286.519450293708
 40
1200
 41
1
 50
-39.25777083999921
  1
4.980
  0
TEXT
  8
_7-4_
 62
    7
 10
14130.704852199528
 20
86739.797589710404
 40
1200
 41
1
 50
52.461066849999945
  1
17.883
  0
TEXT
  8
_7-4_
 62
    7
 10
46019.661018428327
 20
94005.624431970762
 40
1200
 41
1
 50
0
  1
23.156
  0
TEXT
  8
_7-4_
 62
    7
 10
79074.181243679603
 20
93782.981384920102
 40
1200
 41
1
 50
-0.5816435997995029
  1
17.396
  0
TEXT
  8
_7-4_
 62
    7
 10
110162.51185167793
 20
93562.49677067899
 40
1200
 41
1
 50
-0.5816435998000271
  1
20.742
  0
TEXT
  8
_7-4_
 62
    7
 10
140917.0985332081
 20
92775.458538906678
 40
1200
 41
1
 50
-1.9031676009995864
  1
16.654
  0
TEXT
  8
_7-4_
 62
    7
 10
13324.844491568263
 20
60192.19916082453
 40
1200
 41
1
 50
-60.516584360006895
  1
24.410
  0
TEXT
  8
_7-4_
 62
    7
 10
39670.337951135778
 20
47206.671907840202
 40
1200
 41
1
 50
29.179239240015033
  1
18.560
  0
TEXT
  8
_7-4_
 62
    7
 10
55391.021075634446
 20
46205.837997638933
 40
1200
 41
1
 50
-60.415214499995635
  1
15.291
  0
TEXT
  8
_7-4_
 62
    7
 10
65105.535787425382
 20
28991.131005702937
 40
1200
 41
1
 50
-60.618204160003792
  1
9.502
  0
TEXT
  8
_7-4_
 62
    7
 10
156012.95587625445
 20
78697.309414505042
 40
1200
 41
1
 50
88.097173129999973
  1
13,550
  0
TEXT
  8
_7-4_
 62
    7
 10
154198.44402981299
 20
70181.61334742645
 40
1200
 41
1
 50
-60.47974720999995
  1
1,327
  0
LINE
  8
ADD_LINE
  6
DOT
 62
    9
 10
71212.361565386353
 20
8581.0961111448814
 11
6524.5311341468778
 21
8581.0961111448814
  0
LINE
  8
ADD_LINE
  6
DOT
 62
    9
 10
71212.361565386353
 20
10981.096111144881
 11
6524.5311341468778
 21
10981.096111144881
  0
LINE
  8
ADD_LINE
  6
DOT
 62
    9
 10
71212.361565386353
 20
13381.096111144881
 11
6524.5311341468778
 21
13381.096111144881
  0
LINE
  8
ADD_LINE
  6
DOT
 62
    9
 10
71212.361565386353
 20
15781.096111144881
 11
6524.5311341468778
 21
15781.096111144881
  0
LINE
  8
ADD_LINE
  6
DOT
 62
    9
 10
71212.361565386353
 20
18181.096111144881
 11
6524.5311341468778
 21
18181.096111144881
  0
TEXT
  8
_7-5_
 62
    7
 10
6524.5311341468778
 20
15181.096111144881
 40
1200
 41
1
 50
0
  1
※　留意点
  0
TEXT
  8
_7-5_
 62
    7
 10
6524.5311341468778
 20
12781.096111144881
 40
1200
 41
1
 50
0
  1
　１．現在は「町のはらっぱ」として使用していますが、この用地は事業予定地です。
  0
TEXT
  8
_7-5_
 62
    7
 10
6524.5311341468896
 20
5581.0961111448705
 40
1200
 41
1
 50
0
  1
　４．現場訪問の際、近隣に迷惑を掛けないで下さい。
  0
LINE
  8
ADD_LINE
  6
DOT
 62
    9
 10
71212.361565386353
 20
6181.0961111448814
 11
6524.5311341468778
 21
6181.0961111448814
  0
TEXT
  8
_7-5_
 62
    7
 10
6524.5311341468896
 20
10381.096111144871
 40
1200
 41
1
 50
0
  1
　２．事業予定地ですので、今回コンペ用としてのみの土地情報の提供となります。
  0
TEXT
  8
_7-5_
 62
    7
 10
6524.5311341468778
 20
7981.0961111448814
 40
1200
 41
1
 50
0
  1
　３．横浜市にコンペ参加者からの問合せはしないで下さい。
  0
CIRCLE
  8
_7-5_
  6
CONTINUOUS
 62
    1
 10
33792.065895393709
 20
98750.79464872113
 40
1600
  0
LINE
  8
_7-5_
  6
CONTINUOUS
 62
    1
 10
40592.065895393709
 20
98750.79464872113
 11
38660.214242815571
 21
99268.432738926189
  0
LINE
  8
_7-5_
  6
CONTINUOUS
 62
    1
 10
40592.065895393709
 20
98750.79464872113
 11
38660.214242815571
 21
98233.156558516101
  0
TEXT
  8
_7-5_
 62
    1
 10
32992.065895393709
 20
97950.79464872113
 40
1600
 41
1
 50
0
  1
４
  0
CIRCLE
  8
_7-5_
  6
CONTINUOUS
 62
    1
 10
42365.446683795046
 20
94835.092825053012
 40
1600
  0
CIRCLE
  8
_7-5_
  6
CONTINUOUS
 62
    1
 10
54218.314983052245
 20
56235.14817176434
 40
1600
  0
LINE
  8
_7-5_
  6
CONTINUOUS
 62
    1
 10
61018.314983052245
 20
56235.14817176434
 11
59086.463330474115
 21
56752.786261969391
  0
LINE
  8
_7-5_
  6
CONTINUOUS
 62
    1
 10
61018.314983052245
 20
56235.14817176434
 11
59086.463330474115
 21
55717.510081559303
  0
CIRCLE
  8
_7-5_
  6
CONTINUOUS
 62
    1
 10
46719.505598586627
 20
56194.171071302779
 40
1600
  0
CIRCLE
  8
_7-5_
  6
CONTINUOUS
 62
    1
 10
136213.49300663522
 20
80124.797740854236
 40
1600
  0
CIRCLE
  8
_7-5_
  6
CONTINUOUS
 62
    1
 10
128673.70652170805
 20
96679.546327324759
 40
1600
  0
CIRCLE
  8
_7-5_
  6
CONTINUOUS
 62
    1
 10
138999.93583802134
 20
61930.96513592128
 40
1600
  0
CIRCLE
  8
_7-5_
  6
CONTINUOUS
 62
    1
 10
75567.384323525373
 20
27346.292346364033
 40
1600
  0
LINE
  8
_7-5_
  6
CONTINUOUS
 62
    1
 10
35565.446683795046
 20
94835.092825053012
 11
37497.298336373184
 21
94317.454734847968
  0
LINE
  8
_7-5_
  6
CONTINUOUS
 62
    1
 10
35565.446683795046
 20
94835.092825053012
 11
37497.298336373184
 21
95352.730915258056
  0
LINE
  8
_7-5_
  6
CONTINUOUS
 62
    1
 10
122784.73377597386
 20
93279.546327324744
 11
124716.585428552
 21
93797.184417529803
  0
LINE
  8
_7-5_
  6
CONTINUOUS
 62
    1
 10
122784.73377597386
 20
93279.546327324744
 11
124198.94733834696
 21
94693.759889697845
  0
LINE
  8
_7-5_
  6
CONTINUOUS
 62
    1
 10
129413.49300663521
 20
80124.797740854236
 11
131345.34465921336
 21
79607.159650649191
  0
LINE
  8
_7-5_
  6
CONTINUOUS
 62
    1
 10
129413.49300663521
 20
80124.797740854236
 11
131345.34465921336
 21
80642.435831059265
  0
LINE
  8
_7-5_
  6
CONTINUOUS
 62
    1
 10
132610.02601667715
 20
59605.228161306732
 11
134602.41541286066
 21
59779.539646802048
  0
LINE
  8
_7-5_
  6
CONTINUOUS
 62
    1
 10
132610.02601667715
 20
59605.228161306732
 11
134248.33010525515
 21
60752.381034008831
  0
LINE
  8
_7-5_
  6
CONTINUOUS
 62
    1
 10
40830.532852852448
 20
59594.171071302779
 11
42244.746415225542
 21
58179.957508929678
  0
LINE
  8
_7-5_
  6
CONTINUOUS
 62
    1
 10
40830.532852852448
 20
59594.171071302779
 11
42762.384505430586
 21
59076.532981097742
  0
LINE
  8
_7-5_
  6
CONTINUOUS
 62
    1
 10
80375.710435593894
 20
32154.618458432553
 11
78643.659628025009
 21
31154.618458432553
  0
LINE
  8
_7-5_
  6
CONTINUOUS
 62
    1
 10
80375.710435593894
 20
32154.618458432553
 11
79375.710435593879
 21
30422.567650863683
  0
TEXT
  8
_7-5_
 62
    1
 10
74767.384323525373
 20
26546.292346364033
 40
1600
 41
1
 50
0
  1
６
  0
TEXT
  8
_7-5_
 62
    1
 10
45919.505598586627
 20
55394.171071302779
 40
1600
 41
1
 50
0
  1
７
  0
TEXT
  8
_7-5_
 62
    1
 10
53418.314983052245
 20
55435.14817176434
 40
1600
 41
1
 50
0
  1
５
  0
TEXT
  8
_7-5_
 62
    1
 10
41565.446683795046
 20
94035.092825053012
 40
1600
 41
1
 50
0
  1
８
  0
TEXT
  8
_7-5_
 62
    1
 10
127873.70652170805
 20
95879.546327324759
 40
1600
 41
1
 50
0
  1
１
  0
TEXT
  8
_7-5_
 62
    1
 10
135413.49300663522
 20
79324.797740854236
 40
1600
 41
1
 50
0
  1
２
  0
TEXT
  8
_7-5_
 62
    1
 10
138199.93583802134
 20
61130.96513592128
 40
1600
 41
1
 50
0
  1
３
  0
LINE
  8
_7-5_
  6
CONTINUOUS
 62
    1
 10
127288.06587565296
 20
95879.546327324759
 11
122784.73377597386
 21
93279.546327324744
  0
LINE
  8
_7-5_
  6
CONTINUOUS
 62
    1
 10
134613.49300663522
 20
80124.797740854236
 11
129413.49300663521
 21
80124.797740854236
  0
LINE
  8
_7-5_
  6
CONTINUOUS
 62
    1
 10
137496.4276447639
 20
61383.732906600213
 11
132610.02601667715
 21
59605.228161306732
  0
LINE
  8
_7-5_
  6
CONTINUOUS
 62
    1
 10
35392.065895393709
 20
98750.79464872113
 11
40592.065895393709
 21
98750.79464872113
  0
LINE
  8
_7-5_
  6
CONTINUOUS
 62
    1
 10
40765.446683795046
 20
94835.092825053012
 11
35565.446683795046
 21
94835.092825053012
  0
LINE
  8
_7-5_
  6
CONTINUOUS
 62
    1
 10
45333.864952531527
 20
56994.171071302779
 11
40830.532852852448
 21
59594.171071302779
  0
LINE
  8
_7-5_
  6
CONTINUOUS
 62
    1
 10
55818.314983052245
 20
56235.14817176434
 11
61018.314983052245
 21
56235.14817176434
  0
LINE
  8
_7-5_
  6
CONTINUOUS
 62
    1
 10
76698.755173423837
 20
28477.663196262507
 11
80375.710435593894
 21
32154.618458432553
  0
LINE
  8
_7-5_
  6
CONTINUOUS
 62
    7
 10
129415.94267340191
 20
14499.040350086534
 11
137415.94267340191
 21
14499.040350086534
  0
LINE
  8
_7-5_
  6
CONTINUOUS
 62
    7
 10
137415.94267340191
 20
14499.040350086534
 11
137415.94267340191
 21
16099.040350086534
  0
LINE
  8
_7-5_
  6
CONTINUOUS
 62
    7
 10
129415.94267340191
 20
16099.040350086534
 11
129415.94267340191
 21
14499.040350086534
  0
LINE
  8
_7-5_
  6
CONTINUOUS
 62
    7
 10
145415.94267340191
 20
16099.040350086534
 11
145415.94267340191
 21
14499.040350086534
  0
LINE
  8
_7-5_
  6
CONTINUOUS
 62
    7
 10
145415.94267340191
 20
14499.040350086534
 11
137415.94267340191
 21
14499.040350086534
  0
LINE
  8
_7-5_
  6
CONTINUOUS
 62
    7
 10
137415.94267340191
 20
14499.040350086534
 11
137415.94267340191
 21
16099.040350086534
  0
LINE
  8
_7-5_
  6
CONTINUOUS
 62
    7
 10
153415.94267340191
 20
16099.040350086534
 11
153415.94267340191
 21
14499.040350086534
  0
LINE
  8
_7-5_
  6
CONTINUOUS
 62
    7
 10
153415.94267340191
 20
14499.040350086534
 11
145415.94267340191
 21
14499.040350086534
  0
LINE
  8
_7-5_
  6
CONTINUOUS
 62
    7
 10
145415.94267340191
 20
14499.040350086534
 11
145415.94267340191
 21
16099.040350086534
  0
LINE
  8
_7-5_
  6
CONTINUOUS
 62
    7
 10
161415.94267340191
 20
16099.040350086534
 11
161415.94267340191
 21
14499.040350086534
  0
LINE
  8
_7-5_
  6
CONTINUOUS
 62
    7
 10
161415.94267340191
 20
14499.040350086534
 11
153415.94267340191
 21
14499.040350086534
  0
LINE
  8
_7-5_
  6
CONTINUOUS
 62
    7
 10
153415.94267340191
 20
14499.040350086534
 11
153415.94267340191
 21
16099.040350086534
  0
LINE
  8
_7-5_
  6
CONTINUOUS
 62
    7
 10
137415.94267340191
 20
15299.040350086534
 11
145415.94267340191
 21
15299.040350086534
  0
LINE
  8
_7-5_
  6
CONTINUOUS
 62
    7
 10
137415.94267340191
 20
14899.040350086534
 11
145415.94267340191
 21
14899.040350086534
  0
LINE
  8
_7-5_
  6
CONTINUOUS
 62
    7
 10
161415.94267340191
 20
15299.040350086534
 11
153415.94267340191
 21
15299.040350086534
  0
LINE
  8
_7-5_
  6
CONTINUOUS
 62
    7
 10
161415.94267340191
 20
14899.040350086534
 11
153415.94267340191
 21
14899.040350086534
  0
LINE
  8
_7-5_
  6
CONTINUOUS
 62
    7
 10
137415.94267340191
 20
16099.040350086534
 11
129415.94267340191
 21
16099.040350086534
  0
LINE
  8
_7-5_
  6
CONTINUOUS
 62
    7
 10
137415.94267340191
 20
16099.040350086534
 11
145415.94267340191
 21
16099.040350086534
  0
LINE
  8
_7-5_
  6
CONTINUOUS
 62
    7
 10
145415.94267340191
 20
16099.040350086534
 11
153415.94267340191
 21
16099.040350086534
  0
LINE
  8
_7-5_
  6
CONTINUOUS
 62
    7
 10
153415.94267340191
 20
16099.040350086534
 11
161415.94267340191
 21
16099.040350086534
  0
LINE
  8
_7-5_
  6
CONTINUOUS
 62
    7
 10
145415.94267340191
 20
15699.040350086534
 11
137415.94267340191
 21
15699.040350086534
  0
LINE
  8
_7-5_
  6
CONTINUOUS
 62
    7
 10
153415.94267340191
 20
15699.040350086534
 11
161415.94267340191
 21
15699.040350086534
  0
TEXT
  8
_7-4_
 62
    7
 10
112433.03747452782
 20
42826.128353296197
 40
1200
 41
1
 50
29.016675219999978
  1
59.992
  0
TEXT
  8
_7-5_
 62
    7
 10
127397.43960769787
 20
16469.304835084542
 40
2000
 41
1
 50
0
  1
0
  0
TEXT
  8
_7-5_
 62
    7
 10
136425.19420625389
 20
16720.075796155539
 40
2000
 41
1
 50
0
  1
5
  0
TEXT
  8
_7-5_
 62
    7
 10
143028.82951445694
 20
16385.714514727541
 40
2000
 41
1
 50
0
  1
10
  0
TEXT
  8
_7-5_
 62
    7
 10
159640.72688191818
 20
16735.117173077299
 40
2000
 41
1
 50
0
  1
20m
  0
TEXT
  8
_7-5_
 62
    1
 10
80158.459815948067
 20
6933.9131868604682
 40
4000
 41
1
 50
0
  1
横浜市　町のはらっぱ　写真撮影方向
  0
CIRCLE
  8
_7-8_
  6
CONTINUOUS
 62
    7
 10
147556.97501841158
 20
30533.851718447761
 40
2400
  0
CIRCLE
  8
_7-8_
  6
CONTINUOUS
 62
    7
 10
147556.97501841158
 20
30533.851718447761
 40
1600
  0
LINE
  8
_7-8_
  6
CONTINUOUS
 62
    7
 10
146520.26227004494
 20
33561.26425680027
 11
148593.68776677828
 21
27506.439180095244
  0
LINE
  8
_7-8_
  6
CONTINUOUS
 62
    7
 10
138488.74721852003
 20
27428.51102036221
 11
142223.79005143681
 21
29938.672649470311
  0
LINE
  8
_7-8_
  6
CONTINUOUS
 62
    7
 10
142223.79005143681
 20
29938.672649470311
 11
144250.84568086822
 21
28170.5680198628
  0
LINE
  8
_7-8_
  6
CONTINUOUS
 62
    7
 10
138488.74721852003
 20
27428.51102036221
 11
151876.63217068798
 21
32013.083102213888
  0
LINE
  8
_7-8_
  6
CONTINUOUS
 62
    7
 10
142748.15328462661
 20
30118.236564772847
 11
144775.20891405799
 21
28350.131935165336
  0
TEXT
  8
_7-5_
 62
    7
 10
138700.4830090972
 20
26132.692280494528
 40
1200
 41
1
 50
108.90335
  1
真北
  0
ENDSEC
  0
EOF
